ISO-10303-21;
HEADER;
/* Generated by software containing ST-Developer
 * from STEP Tools, Inc. (www.steptools.com) 
 */

FILE_DESCRIPTION(
/* description */ (''),
/* implementation_level */ '2;1');

FILE_NAME(
/* name */ 'OP120x400.ipt.stp',
/* time_stamp */ '2023-05-17T09:47:39+03:00',
/* author */ ('\X2\042004420438044904350432\X0\ \X2\0410\X0\.\X2\041E\X0\.'),

/* organization */ (''),
/* preprocessor_version */ 'ST-DEVELOPER v19.2',
/* originating_system */ 'Autodesk Inventor 2023',
/* authorisation */ '');

FILE_SCHEMA (('AUTOMOTIVE_DESIGN { 1 0 10303 214 3 1 1 }'));
ENDSEC;

DATA;
#10=MECHANICAL_DESIGN_GEOMETRIC_PRESENTATION_REPRESENTATION('',(#166,#167,
#168,#169,#170,#171,#172,#173,#174,#175),#318);
#11=SHAPE_REPRESENTATION_RELATIONSHIP('SRR','None',#325,#12);
#12=ADVANCED_BREP_SHAPE_REPRESENTATION('',(#13),#317);
#13=MANIFOLD_SOLID_BREP('\X2\04220432043504400434043E0435\X0\ \X2\04420435043B043E\X0\1',
#185);
#14=CYLINDRICAL_SURFACE('',#216,5.5);
#15=CYLINDRICAL_SURFACE('',#218,5.5);
#16=CYLINDRICAL_SURFACE('',#220,5.5);
#17=FACE_BOUND('',#43,.T.);
#18=FACE_BOUND('',#44,.T.);
#19=FACE_BOUND('',#45,.T.);
#20=FACE_BOUND('',#50,.T.);
#21=FACE_BOUND('',#51,.T.);
#22=FACE_BOUND('',#52,.T.);
#23=CIRCLE('',#213,5.5);
#24=CIRCLE('',#214,5.5);
#25=CIRCLE('',#215,5.5);
#26=CIRCLE('',#217,5.5);
#27=CIRCLE('',#219,5.5);
#28=CIRCLE('',#221,5.5);
#29=FACE_OUTER_BOUND('',#38,.T.);
#30=FACE_OUTER_BOUND('',#39,.T.);
#31=FACE_OUTER_BOUND('',#40,.T.);
#32=FACE_OUTER_BOUND('',#41,.T.);
#33=FACE_OUTER_BOUND('',#42,.T.);
#34=FACE_OUTER_BOUND('',#46,.T.);
#35=FACE_OUTER_BOUND('',#47,.T.);
#36=FACE_OUTER_BOUND('',#48,.T.);
#37=FACE_OUTER_BOUND('',#49,.T.);
#38=EDGE_LOOP('',(#118,#119,#120,#121));
#39=EDGE_LOOP('',(#122,#123,#124,#125));
#40=EDGE_LOOP('',(#126,#127,#128,#129));
#41=EDGE_LOOP('',(#130,#131,#132,#133));
#42=EDGE_LOOP('',(#134,#135,#136,#137));
#43=EDGE_LOOP('',(#138));
#44=EDGE_LOOP('',(#139));
#45=EDGE_LOOP('',(#140));
#46=EDGE_LOOP('',(#141,#142,#143,#144));
#47=EDGE_LOOP('',(#145,#146,#147,#148));
#48=EDGE_LOOP('',(#149,#150,#151,#152));
#49=EDGE_LOOP('',(#153,#154,#155,#156));
#50=EDGE_LOOP('',(#157));
#51=EDGE_LOOP('',(#158));
#52=EDGE_LOOP('',(#159));
#53=LINE('',#274,#68);
#54=LINE('',#276,#69);
#55=LINE('',#278,#70);
#56=LINE('',#279,#71);
#57=LINE('',#282,#72);
#58=LINE('',#284,#73);
#59=LINE('',#285,#74);
#60=LINE('',#288,#75);
#61=LINE('',#290,#76);
#62=LINE('',#291,#77);
#63=LINE('',#293,#78);
#64=LINE('',#294,#79);
#65=LINE('',#305,#80);
#66=LINE('',#309,#81);
#67=LINE('',#313,#82);
#68=VECTOR('',#227,10.);
#69=VECTOR('',#228,10.);
#70=VECTOR('',#229,10.);
#71=VECTOR('',#230,10.);
#72=VECTOR('',#233,10.);
#73=VECTOR('',#234,10.);
#74=VECTOR('',#235,10.);
#75=VECTOR('',#238,10.);
#76=VECTOR('',#239,10.);
#77=VECTOR('',#240,10.);
#78=VECTOR('',#243,10.);
#79=VECTOR('',#244,10.);
#80=VECTOR('',#257,5.5);
#81=VECTOR('',#262,5.5);
#82=VECTOR('',#267,5.5);
#83=VERTEX_POINT('',#272);
#84=VERTEX_POINT('',#273);
#85=VERTEX_POINT('',#275);
#86=VERTEX_POINT('',#277);
#87=VERTEX_POINT('',#281);
#88=VERTEX_POINT('',#283);
#89=VERTEX_POINT('',#287);
#90=VERTEX_POINT('',#289);
#91=VERTEX_POINT('',#296);
#92=VERTEX_POINT('',#298);
#93=VERTEX_POINT('',#300);
#94=VERTEX_POINT('',#303);
#95=VERTEX_POINT('',#307);
#96=VERTEX_POINT('',#311);
#97=EDGE_CURVE('',#83,#84,#53,.T.);
#98=EDGE_CURVE('',#83,#85,#54,.T.);
#99=EDGE_CURVE('',#85,#86,#55,.T.);
#100=EDGE_CURVE('',#84,#86,#56,.T.);
#101=EDGE_CURVE('',#86,#87,#57,.T.);
#102=EDGE_CURVE('',#88,#87,#58,.T.);
#103=EDGE_CURVE('',#84,#88,#59,.T.);
#104=EDGE_CURVE('',#87,#89,#60,.T.);
#105=EDGE_CURVE('',#90,#89,#61,.T.);
#106=EDGE_CURVE('',#88,#90,#62,.T.);
#107=EDGE_CURVE('',#89,#85,#63,.T.);
#108=EDGE_CURVE('',#90,#83,#64,.T.);
#109=EDGE_CURVE('',#91,#91,#23,.T.);
#110=EDGE_CURVE('',#92,#92,#24,.T.);
#111=EDGE_CURVE('',#93,#93,#25,.T.);
#112=EDGE_CURVE('',#94,#94,#26,.T.);
#113=EDGE_CURVE('',#94,#91,#65,.T.);
#114=EDGE_CURVE('',#95,#95,#27,.T.);
#115=EDGE_CURVE('',#95,#92,#66,.T.);
#116=EDGE_CURVE('',#96,#96,#28,.T.);
#117=EDGE_CURVE('',#96,#93,#67,.T.);
#118=ORIENTED_EDGE('',*,*,#97,.F.);
#119=ORIENTED_EDGE('',*,*,#98,.T.);
#120=ORIENTED_EDGE('',*,*,#99,.T.);
#121=ORIENTED_EDGE('',*,*,#100,.F.);
#122=ORIENTED_EDGE('',*,*,#100,.T.);
#123=ORIENTED_EDGE('',*,*,#101,.T.);
#124=ORIENTED_EDGE('',*,*,#102,.F.);
#125=ORIENTED_EDGE('',*,*,#103,.F.);
#126=ORIENTED_EDGE('',*,*,#102,.T.);
#127=ORIENTED_EDGE('',*,*,#104,.T.);
#128=ORIENTED_EDGE('',*,*,#105,.F.);
#129=ORIENTED_EDGE('',*,*,#106,.F.);
#130=ORIENTED_EDGE('',*,*,#105,.T.);
#131=ORIENTED_EDGE('',*,*,#107,.T.);
#132=ORIENTED_EDGE('',*,*,#98,.F.);
#133=ORIENTED_EDGE('',*,*,#108,.F.);
#134=ORIENTED_EDGE('',*,*,#97,.T.);
#135=ORIENTED_EDGE('',*,*,#103,.T.);
#136=ORIENTED_EDGE('',*,*,#106,.T.);
#137=ORIENTED_EDGE('',*,*,#108,.T.);
#138=ORIENTED_EDGE('',*,*,#109,.T.);
#139=ORIENTED_EDGE('',*,*,#110,.T.);
#140=ORIENTED_EDGE('',*,*,#111,.T.);
#141=ORIENTED_EDGE('',*,*,#112,.F.);
#142=ORIENTED_EDGE('',*,*,#113,.T.);
#143=ORIENTED_EDGE('',*,*,#109,.F.);
#144=ORIENTED_EDGE('',*,*,#113,.F.);
#145=ORIENTED_EDGE('',*,*,#114,.F.);
#146=ORIENTED_EDGE('',*,*,#115,.T.);
#147=ORIENTED_EDGE('',*,*,#110,.F.);
#148=ORIENTED_EDGE('',*,*,#115,.F.);
#149=ORIENTED_EDGE('',*,*,#116,.F.);
#150=ORIENTED_EDGE('',*,*,#117,.T.);
#151=ORIENTED_EDGE('',*,*,#111,.F.);
#152=ORIENTED_EDGE('',*,*,#117,.F.);
#153=ORIENTED_EDGE('',*,*,#99,.F.);
#154=ORIENTED_EDGE('',*,*,#107,.F.);
#155=ORIENTED_EDGE('',*,*,#104,.F.);
#156=ORIENTED_EDGE('',*,*,#101,.F.);
#157=ORIENTED_EDGE('',*,*,#112,.T.);
#158=ORIENTED_EDGE('',*,*,#114,.T.);
#159=ORIENTED_EDGE('',*,*,#116,.T.);
#160=PLANE('',#208);
#161=PLANE('',#209);
#162=PLANE('',#210);
#163=PLANE('',#211);
#164=PLANE('',#212);
#165=PLANE('',#222);
#166=STYLED_ITEM('',(#334),#176);
#167=STYLED_ITEM('',(#334),#177);
#168=STYLED_ITEM('',(#334),#178);
#169=STYLED_ITEM('',(#334),#179);
#170=STYLED_ITEM('',(#334),#180);
#171=STYLED_ITEM('',(#334),#181);
#172=STYLED_ITEM('',(#334),#182);
#173=STYLED_ITEM('',(#334),#183);
#174=STYLED_ITEM('',(#334),#184);
#175=STYLED_ITEM('',(#334),#13);
#176=ADVANCED_FACE('',(#29),#160,.T.);
#177=ADVANCED_FACE('',(#30),#161,.T.);
#178=ADVANCED_FACE('',(#31),#162,.T.);
#179=ADVANCED_FACE('',(#32),#163,.T.);
#180=ADVANCED_FACE('',(#33,#17,#18,#19),#164,.F.);
#181=ADVANCED_FACE('',(#34),#14,.F.);
#182=ADVANCED_FACE('',(#35),#15,.F.);
#183=ADVANCED_FACE('',(#36),#16,.F.);
#184=ADVANCED_FACE('',(#37,#20,#21,#22),#165,.T.);
#185=CLOSED_SHELL('',(#176,#177,#178,#179,#180,#181,#182,#183,#184));
#186=DERIVED_UNIT_ELEMENT(#189,1.);
#187=DERIVED_UNIT_ELEMENT(#320,-3.);
#188=DIMENSIONAL_EXPONENTS(0.,1.,0.,0.,0.,0.,0.);
#189=(
CONVERSION_BASED_UNIT('gram',#191)
MASS_UNIT()
NAMED_UNIT(#188)
);
#190=(
MASS_UNIT()
NAMED_UNIT(*)
SI_UNIT(.KILO.,.GRAM.)
);
#191=MASS_MEASURE_WITH_UNIT(MASS_MEASURE(0.001),#190);
#192=DERIVED_UNIT((#186,#187));
#193=MEASURE_REPRESENTATION_ITEM('density measure',
POSITIVE_RATIO_MEASURE(1.),#192);
#194=PROPERTY_DEFINITION_REPRESENTATION(#199,#196);
#195=PROPERTY_DEFINITION_REPRESENTATION(#200,#197);
#196=REPRESENTATION('material name',(#198),#317);
#197=REPRESENTATION('density',(#193),#317);
#198=DESCRIPTIVE_REPRESENTATION_ITEM('\X2\04220438043F043E0432044B0435\X0\',
'\X2\04220438043F043E0432044B0435\X0\');
#199=PROPERTY_DEFINITION('material property','material name',#327);
#200=PROPERTY_DEFINITION('material property','density of part',#327);
#201=DATE_TIME_ROLE('creation_date');
#202=APPLIED_DATE_AND_TIME_ASSIGNMENT(#203,#201,(#327));
#203=DATE_AND_TIME(#204,#205);
#204=CALENDAR_DATE(2019,25,4);
#205=LOCAL_TIME(0,0,0.,#206);
#206=COORDINATED_UNIVERSAL_TIME_OFFSET(0,0,.BEHIND.);
#207=AXIS2_PLACEMENT_3D('',#270,#223,#224);
#208=AXIS2_PLACEMENT_3D('',#271,#225,#226);
#209=AXIS2_PLACEMENT_3D('',#280,#231,#232);
#210=AXIS2_PLACEMENT_3D('',#286,#236,#237);
#211=AXIS2_PLACEMENT_3D('',#292,#241,#242);
#212=AXIS2_PLACEMENT_3D('',#295,#245,#246);
#213=AXIS2_PLACEMENT_3D('',#297,#247,#248);
#214=AXIS2_PLACEMENT_3D('',#299,#249,#250);
#215=AXIS2_PLACEMENT_3D('',#301,#251,#252);
#216=AXIS2_PLACEMENT_3D('',#302,#253,#254);
#217=AXIS2_PLACEMENT_3D('',#304,#255,#256);
#218=AXIS2_PLACEMENT_3D('',#306,#258,#259);
#219=AXIS2_PLACEMENT_3D('',#308,#260,#261);
#220=AXIS2_PLACEMENT_3D('',#310,#263,#264);
#221=AXIS2_PLACEMENT_3D('',#312,#265,#266);
#222=AXIS2_PLACEMENT_3D('',#314,#268,#269);
#223=DIRECTION('axis',(0.,0.,1.));
#224=DIRECTION('refdir',(1.,0.,0.));
#225=DIRECTION('center_axis',(0.,0.,1.));
#226=DIRECTION('ref_axis',(1.,0.,0.));
#227=DIRECTION('',(-1.,0.,0.));
#228=DIRECTION('',(0.,1.,0.));
#229=DIRECTION('',(-1.,0.,0.));
#230=DIRECTION('',(0.,1.,0.));
#231=DIRECTION('center_axis',(-1.,0.,-1.77635683940025E-16));
#232=DIRECTION('ref_axis',(-1.77635683940025E-16,0.,1.));
#233=DIRECTION('',(1.77635683940025E-16,0.,-1.));
#234=DIRECTION('',(0.,1.,0.));
#235=DIRECTION('',(1.77635683940025E-16,0.,-1.));
#236=DIRECTION('center_axis',(0.,0.,-1.));
#237=DIRECTION('ref_axis',(-1.,0.,0.));
#238=DIRECTION('',(1.,0.,0.));
#239=DIRECTION('',(0.,1.,0.));
#240=DIRECTION('',(1.,0.,0.));
#241=DIRECTION('center_axis',(1.,0.,3.10862446895044E-16));
#242=DIRECTION('ref_axis',(3.10862446895044E-16,0.,-1.));
#243=DIRECTION('',(-3.10862446895044E-16,0.,1.));
#244=DIRECTION('',(-3.10862446895044E-16,0.,1.));
#245=DIRECTION('center_axis',(0.,1.,0.));
#246=DIRECTION('ref_axis',(0.,0.,1.));
#247=DIRECTION('center_axis',(0.,1.,0.));
#248=DIRECTION('ref_axis',(-1.,0.,0.));
#249=DIRECTION('center_axis',(0.,1.,0.));
#250=DIRECTION('ref_axis',(-1.,0.,0.));
#251=DIRECTION('center_axis',(0.,1.,0.));
#252=DIRECTION('ref_axis',(-1.,0.,0.));
#253=DIRECTION('center_axis',(0.,-1.,0.));
#254=DIRECTION('ref_axis',(-1.,0.,0.));
#255=DIRECTION('center_axis',(0.,-1.,0.));
#256=DIRECTION('ref_axis',(-1.,0.,0.));
#257=DIRECTION('',(0.,-1.,0.));
#258=DIRECTION('center_axis',(0.,-1.,0.));
#259=DIRECTION('ref_axis',(-1.,0.,0.));
#260=DIRECTION('center_axis',(0.,-1.,0.));
#261=DIRECTION('ref_axis',(-1.,0.,0.));
#262=DIRECTION('',(0.,-1.,0.));
#263=DIRECTION('center_axis',(0.,-1.,0.));
#264=DIRECTION('ref_axis',(-1.,0.,0.));
#265=DIRECTION('center_axis',(0.,-1.,0.));
#266=DIRECTION('ref_axis',(-1.,0.,0.));
#267=DIRECTION('',(0.,-1.,0.));
#268=DIRECTION('center_axis',(0.,1.,0.));
#269=DIRECTION('ref_axis',(0.,0.,1.));
#270=CARTESIAN_POINT('',(0.,0.,0.));
#271=CARTESIAN_POINT('Origin',(59.9999999999999,0.,200.));
#272=CARTESIAN_POINT('',(59.9999999999999,0.,200.));
#273=CARTESIAN_POINT('',(-60.,0.,200.));
#274=CARTESIAN_POINT('',(59.9999999999999,0.,200.));
#275=CARTESIAN_POINT('',(59.9999999999999,4.,200.));
#276=CARTESIAN_POINT('',(59.9999999999999,0.,200.));
#277=CARTESIAN_POINT('',(-60.,4.,200.));
#278=CARTESIAN_POINT('',(59.9999999999999,4.,200.));
#279=CARTESIAN_POINT('',(-60.,0.,200.));
#280=CARTESIAN_POINT('Origin',(-60.,0.,200.));
#281=CARTESIAN_POINT('',(-59.9999999999999,4.,-200.));
#282=CARTESIAN_POINT('',(-60.,4.,200.));
#283=CARTESIAN_POINT('',(-59.9999999999999,0.,-200.));
#284=CARTESIAN_POINT('',(-59.9999999999999,0.,-200.));
#285=CARTESIAN_POINT('',(-60.,0.,200.));
#286=CARTESIAN_POINT('Origin',(-59.9999999999999,0.,-200.));
#287=CARTESIAN_POINT('',(60.0000000000001,4.,-200.));
#288=CARTESIAN_POINT('',(-59.9999999999999,4.,-200.));
#289=CARTESIAN_POINT('',(60.0000000000001,0.,-200.));
#290=CARTESIAN_POINT('',(60.,0.,-200.));
#291=CARTESIAN_POINT('',(-59.9999999999999,0.,-200.));
#292=CARTESIAN_POINT('Origin',(60.,0.,-200.));
#293=CARTESIAN_POINT('',(60.,4.,-200.));
#294=CARTESIAN_POINT('',(60.,0.,-200.));
#295=CARTESIAN_POINT('Origin',(0.,0.,-2.96577059725042E-14));
#296=CARTESIAN_POINT('',(5.49999999999999,0.,-25.));
#297=CARTESIAN_POINT('Origin',(-9.99200722162641E-15,0.,-25.));
#298=CARTESIAN_POINT('',(5.49999999999996,0.,175.));
#299=CARTESIAN_POINT('Origin',(-4.44089209850063E-14,0.,175.));
#300=CARTESIAN_POINT('',(5.50000000000004,0.,-175.));
#301=CARTESIAN_POINT('Origin',(4.44089209850063E-14,0.,-175.));
#302=CARTESIAN_POINT('Origin',(-9.99200722162641E-15,4.,-25.));
#303=CARTESIAN_POINT('',(5.49999999999999,4.,-25.));
#304=CARTESIAN_POINT('Origin',(-9.99200722162641E-15,4.,-25.));
#305=CARTESIAN_POINT('',(5.49999999999999,4.,-25.));
#306=CARTESIAN_POINT('Origin',(-4.44089209850063E-14,4.,175.));
#307=CARTESIAN_POINT('',(5.49999999999996,4.,175.));
#308=CARTESIAN_POINT('Origin',(-4.44089209850063E-14,4.,175.));
#309=CARTESIAN_POINT('',(5.49999999999996,4.,175.));
#310=CARTESIAN_POINT('Origin',(4.44089209850063E-14,4.,-175.));
#311=CARTESIAN_POINT('',(5.50000000000004,4.,-175.));
#312=CARTESIAN_POINT('Origin',(4.44089209850063E-14,4.,-175.));
#313=CARTESIAN_POINT('',(5.50000000000004,4.,-175.));
#314=CARTESIAN_POINT('Origin',(0.,4.,-2.96577059725042E-14));
#315=UNCERTAINTY_MEASURE_WITH_UNIT(LENGTH_MEASURE(0.01),#319,
'DISTANCE_ACCURACY_VALUE',
'Maximum model space distance between geometric entities at asserted c
onnectivities');
#316=UNCERTAINTY_MEASURE_WITH_UNIT(LENGTH_MEASURE(0.01),#319,
'DISTANCE_ACCURACY_VALUE',
'Maximum model space distance between geometric entities at asserted c
onnectivities');
#317=(
GEOMETRIC_REPRESENTATION_CONTEXT(3)
GLOBAL_UNCERTAINTY_ASSIGNED_CONTEXT((#315))
GLOBAL_UNIT_ASSIGNED_CONTEXT((#319,#321,#322))
REPRESENTATION_CONTEXT('','3D')
);
#318=(
GEOMETRIC_REPRESENTATION_CONTEXT(3)
GLOBAL_UNCERTAINTY_ASSIGNED_CONTEXT((#316))
GLOBAL_UNIT_ASSIGNED_CONTEXT((#319,#321,#322))
REPRESENTATION_CONTEXT('','3D')
);
#319=(
LENGTH_UNIT()
NAMED_UNIT(*)
SI_UNIT(.MILLI.,.METRE.)
);
#320=(
LENGTH_UNIT()
NAMED_UNIT(*)
SI_UNIT(.CENTI.,.METRE.)
);
#321=(
NAMED_UNIT(*)
PLANE_ANGLE_UNIT()
SI_UNIT($,.RADIAN.)
);
#322=(
NAMED_UNIT(*)
SI_UNIT($,.STERADIAN.)
SOLID_ANGLE_UNIT()
);
#323=SHAPE_DEFINITION_REPRESENTATION(#324,#325);
#324=PRODUCT_DEFINITION_SHAPE('',$,#327);
#325=SHAPE_REPRESENTATION('',(#207),#317);
#326=PRODUCT_DEFINITION_CONTEXT('part definition',#331,'design');
#327=PRODUCT_DEFINITION(
'\X2\041E043F043E0440043D0430044F\X0\ \X2\043F043B0430044104420438043D0430\X0\ 
\X2\0434043B044F\X0\ \X2\043E0433043D043504410442043E0439043A043E0439\X0\ 
\X2\043F0435044004350433043E0440043E0434043A0438\X0\ 120\X2\0445\X0\40
0\X2\0445\X0\4,0 \X2\043C043C\X0\, \X2\041E043F043E0440043D0430044F\X0\ 
\X2\043F043B0430044104420438043D0430\X0\ \X2\0434043B044F\X0\ \X2\043E0433043D043504410442043E0439043A043E0439\X0\ 
\X2\043F0435044004350433043E0440043E0434043A0438\X0\ 120\X2\0445\X0\40
0\X2\0445\X0\4,0 \X2\043C043C\X0\, OP120x400','OP120x400',#328,#326);
#328=PRODUCT_DEFINITION_FORMATION('',$,#333);
#329=PRODUCT_RELATED_PRODUCT_CATEGORY('OP120x400','OP120x400',(#333));
#330=APPLICATION_PROTOCOL_DEFINITION('international standard',
'automotive_design',2009,#331);
#331=APPLICATION_CONTEXT(
'Core Data for Automotive Mechanical Design Process');
#332=PRODUCT_CONTEXT('part definition',#331,'mechanical');
#333=PRODUCT(
'\X2\041E043F043E0440043D0430044F\X0\ \X2\043F043B0430044104420438043D0430\X0\ 
\X2\0434043B044F\X0\ \X2\043E0433043D043504410442043E0439043A043E0439\X0\ 
\X2\043F0435044004350433043E0440043E0434043A0438\X0\ 120\X2\0445\X0\40
0\X2\0445\X0\4,0 \X2\043C043C\X0\, \X2\041E043F043E0440043D0430044F\X0\ 
\X2\043F043B0430044104420438043D0430\X0\ \X2\0434043B044F\X0\ \X2\043E0433043D043504410442043E0439043A043E0439\X0\ 
\X2\043F0435044004350433043E0440043E0434043A0438\X0\ 120\X2\0445\X0\40
0\X2\0445\X0\4,0 \X2\043C043C\X0\, OP120x400','OP120x400',$,(#332));
#334=PRESENTATION_STYLE_ASSIGNMENT((#335));
#335=SURFACE_STYLE_USAGE(.BOTH.,#338);
#336=SURFACE_STYLE_RENDERING_WITH_PROPERTIES($,#342,(#337));
#337=SURFACE_STYLE_TRANSPARENT(0.);
#338=SURFACE_SIDE_STYLE('',(#339,#336));
#339=SURFACE_STYLE_FILL_AREA(#340);
#340=FILL_AREA_STYLE('',(#341));
#341=FILL_AREA_STYLE_COLOUR('',#342);
#342=COLOUR_RGB('',0.745098039215686,0.737254901960784,0.729411764705882);
ENDSEC;
END-ISO-10303-21;
