ISO-10303-21;
HEADER;
/* Generated by software containing ST-Developer
 * from STEP Tools, Inc. (www.steptools.com) 
 */

FILE_DESCRIPTION(
/* description */ (''),
/* implementation_level */ '2;1');

FILE_NAME(
/* name */ '250030 PMZ.ipt.stp',
/* time_stamp */ '2023-05-18T12:10:10+03:00',
/* author */ ('\X2\042004420438044904350432\X0\ \X2\0410\X0\. \X2\041E\X0\.'),

/* organization */ (''),
/* preprocessor_version */ 'ST-DEVELOPER v19.2',
/* originating_system */ 'Autodesk Inventor 2023',
/* authorisation */ '');

FILE_SCHEMA (('AUTOMOTIVE_DESIGN { 1 0 10303 214 3 1 1 }'));
ENDSEC;

DATA;
#10=MECHANICAL_DESIGN_GEOMETRIC_PRESENTATION_REPRESENTATION('',(#13),#612);
#11=SHAPE_REPRESENTATION_RELATIONSHIP('SRR','None',#619,#12);
#12=ADVANCED_BREP_SHAPE_REPRESENTATION('',(#14),#611);
#13=STYLED_ITEM('',(#628),#14);
#14=MANIFOLD_SOLID_BREP('\X2\04220432043504400434043E0435\X0\ \X2\04420435043B043E\X0\1',
#351);
#15=FACE_BOUND('',#49,.T.);
#16=FACE_BOUND('',#50,.T.);
#17=FACE_BOUND('',#67,.T.);
#18=FACE_BOUND('',#68,.T.);
#19=PLANE('',#377);
#20=PLANE('',#385);
#21=PLANE('',#390);
#22=PLANE('',#395);
#23=PLANE('',#398);
#24=PLANE('',#401);
#25=PLANE('',#404);
#26=PLANE('',#405);
#27=PLANE('',#406);
#28=PLANE('',#407);
#29=FACE_OUTER_BOUND('',#47,.T.);
#30=FACE_OUTER_BOUND('',#48,.T.);
#31=FACE_OUTER_BOUND('',#51,.T.);
#32=FACE_OUTER_BOUND('',#52,.T.);
#33=FACE_OUTER_BOUND('',#53,.T.);
#34=FACE_OUTER_BOUND('',#54,.T.);
#35=FACE_OUTER_BOUND('',#55,.T.);
#36=FACE_OUTER_BOUND('',#56,.T.);
#37=FACE_OUTER_BOUND('',#57,.T.);
#38=FACE_OUTER_BOUND('',#58,.T.);
#39=FACE_OUTER_BOUND('',#59,.T.);
#40=FACE_OUTER_BOUND('',#60,.T.);
#41=FACE_OUTER_BOUND('',#61,.T.);
#42=FACE_OUTER_BOUND('',#62,.T.);
#43=FACE_OUTER_BOUND('',#63,.T.);
#44=FACE_OUTER_BOUND('',#64,.T.);
#45=FACE_OUTER_BOUND('',#65,.T.);
#46=FACE_OUTER_BOUND('',#66,.T.);
#47=EDGE_LOOP('',(#229,#230,#231,#232));
#48=EDGE_LOOP('',(#233,#234,#235,#236,#237,#238,#239,#240));
#49=EDGE_LOOP('',(#241,#242,#243,#244));
#50=EDGE_LOOP('',(#245,#246,#247,#248));
#51=EDGE_LOOP('',(#249,#250,#251,#252));
#52=EDGE_LOOP('',(#253,#254,#255,#256));
#53=EDGE_LOOP('',(#257,#258,#259,#260));
#54=EDGE_LOOP('',(#261,#262,#263,#264));
#55=EDGE_LOOP('',(#265,#266,#267,#268));
#56=EDGE_LOOP('',(#269,#270,#271,#272));
#57=EDGE_LOOP('',(#273,#274,#275,#276));
#58=EDGE_LOOP('',(#277,#278,#279,#280));
#59=EDGE_LOOP('',(#281,#282,#283,#284));
#60=EDGE_LOOP('',(#285,#286,#287,#288));
#61=EDGE_LOOP('',(#289,#290,#291,#292));
#62=EDGE_LOOP('',(#293,#294,#295,#296));
#63=EDGE_LOOP('',(#297,#298,#299,#300));
#64=EDGE_LOOP('',(#301,#302,#303,#304));
#65=EDGE_LOOP('',(#305,#306,#307,#308));
#66=EDGE_LOOP('',(#309,#310,#311,#312,#313,#314,#315,#316));
#67=EDGE_LOOP('',(#317,#318,#319,#320));
#68=EDGE_LOOP('',(#321,#322,#323,#324));
#69=LINE('',#516,#101);
#70=LINE('',#519,#102);
#71=LINE('',#522,#103);
#72=LINE('',#526,#104);
#73=LINE('',#530,#105);
#74=LINE('',#533,#106);
#75=LINE('',#538,#107);
#76=LINE('',#541,#108);
#77=LINE('',#546,#109);
#78=LINE('',#549,#110);
#79=LINE('',#552,#111);
#80=LINE('',#553,#112);
#81=LINE('',#557,#113);
#82=LINE('',#562,#114);
#83=LINE('',#563,#115);
#84=LINE('',#566,#116);
#85=LINE('',#567,#117);
#86=LINE('',#571,#118);
#87=LINE('',#576,#119);
#88=LINE('',#577,#120);
#89=LINE('',#580,#121);
#90=LINE('',#581,#122);
#91=LINE('',#585,#123);
#92=LINE('',#587,#124);
#93=LINE('',#592,#125);
#94=LINE('',#593,#126);
#95=LINE('',#596,#127);
#96=LINE('',#597,#128);
#97=LINE('',#601,#129);
#98=LINE('',#603,#130);
#99=LINE('',#605,#131);
#100=LINE('',#607,#132);
#101=VECTOR('',#414,10.);
#102=VECTOR('',#417,10.);
#103=VECTOR('',#420,10.);
#104=VECTOR('',#423,10.);
#105=VECTOR('',#426,10.);
#106=VECTOR('',#429,10.);
#107=VECTOR('',#432,10.);
#108=VECTOR('',#435,10.);
#109=VECTOR('',#438,10.);
#110=VECTOR('',#441,10.);
#111=VECTOR('',#444,10.);
#112=VECTOR('',#445,10.);
#113=VECTOR('',#450,10.);
#114=VECTOR('',#455,10.);
#115=VECTOR('',#456,10.);
#116=VECTOR('',#459,10.);
#117=VECTOR('',#460,10.);
#118=VECTOR('',#465,10.);
#119=VECTOR('',#470,10.);
#120=VECTOR('',#471,10.);
#121=VECTOR('',#474,10.);
#122=VECTOR('',#475,10.);
#123=VECTOR('',#480,10.);
#124=VECTOR('',#483,10.);
#125=VECTOR('',#488,10.);
#126=VECTOR('',#489,10.);
#127=VECTOR('',#492,10.);
#128=VECTOR('',#493,10.);
#129=VECTOR('',#498,10.);
#130=VECTOR('',#501,10.);
#131=VECTOR('',#504,10.);
#132=VECTOR('',#507,10.);
#133=CIRCLE('',#375,5.);
#134=CIRCLE('',#376,5.);
#135=CIRCLE('',#378,5.);
#136=CIRCLE('',#379,5.);
#137=CIRCLE('',#380,5.);
#138=CIRCLE('',#381,3.50000000000001);
#139=CIRCLE('',#382,3.50000000000001);
#140=CIRCLE('',#383,3.5);
#141=CIRCLE('',#384,3.5);
#142=CIRCLE('',#387,5.);
#143=CIRCLE('',#389,5.);
#144=CIRCLE('',#392,5.);
#145=CIRCLE('',#394,3.50000000000001);
#146=CIRCLE('',#397,3.50000000000001);
#147=CIRCLE('',#400,3.5);
#148=CIRCLE('',#403,3.5);
#149=VERTEX_POINT('',#512);
#150=VERTEX_POINT('',#513);
#151=VERTEX_POINT('',#515);
#152=VERTEX_POINT('',#517);
#153=VERTEX_POINT('',#521);
#154=VERTEX_POINT('',#523);
#155=VERTEX_POINT('',#525);
#156=VERTEX_POINT('',#527);
#157=VERTEX_POINT('',#529);
#158=VERTEX_POINT('',#531);
#159=VERTEX_POINT('',#534);
#160=VERTEX_POINT('',#535);
#161=VERTEX_POINT('',#537);
#162=VERTEX_POINT('',#539);
#163=VERTEX_POINT('',#542);
#164=VERTEX_POINT('',#543);
#165=VERTEX_POINT('',#545);
#166=VERTEX_POINT('',#547);
#167=VERTEX_POINT('',#551);
#168=VERTEX_POINT('',#555);
#169=VERTEX_POINT('',#559);
#170=VERTEX_POINT('',#560);
#171=VERTEX_POINT('',#565);
#172=VERTEX_POINT('',#569);
#173=VERTEX_POINT('',#573);
#174=VERTEX_POINT('',#574);
#175=VERTEX_POINT('',#579);
#176=VERTEX_POINT('',#583);
#177=VERTEX_POINT('',#589);
#178=VERTEX_POINT('',#590);
#179=VERTEX_POINT('',#595);
#180=VERTEX_POINT('',#599);
#181=EDGE_CURVE('',#149,#150,#133,.T.);
#182=EDGE_CURVE('',#150,#151,#69,.T.);
#183=EDGE_CURVE('',#151,#152,#134,.T.);
#184=EDGE_CURVE('',#152,#149,#70,.T.);
#185=EDGE_CURVE('',#151,#153,#71,.T.);
#186=EDGE_CURVE('',#154,#153,#135,.T.);
#187=EDGE_CURVE('',#154,#155,#72,.T.);
#188=EDGE_CURVE('',#156,#155,#136,.T.);
#189=EDGE_CURVE('',#156,#157,#73,.T.);
#190=EDGE_CURVE('',#158,#157,#137,.T.);
#191=EDGE_CURVE('',#158,#152,#74,.T.);
#192=EDGE_CURVE('',#159,#160,#138,.T.);
#193=EDGE_CURVE('',#160,#161,#75,.T.);
#194=EDGE_CURVE('',#161,#162,#139,.T.);
#195=EDGE_CURVE('',#162,#159,#76,.T.);
#196=EDGE_CURVE('',#163,#164,#140,.T.);
#197=EDGE_CURVE('',#164,#165,#77,.T.);
#198=EDGE_CURVE('',#165,#166,#141,.T.);
#199=EDGE_CURVE('',#166,#163,#78,.T.);
#200=EDGE_CURVE('',#150,#167,#79,.T.);
#201=EDGE_CURVE('',#153,#167,#80,.T.);
#202=EDGE_CURVE('',#167,#168,#142,.T.);
#203=EDGE_CURVE('',#168,#154,#81,.T.);
#204=EDGE_CURVE('',#169,#170,#143,.T.);
#205=EDGE_CURVE('',#170,#158,#82,.T.);
#206=EDGE_CURVE('',#157,#169,#83,.T.);
#207=EDGE_CURVE('',#171,#156,#84,.T.);
#208=EDGE_CURVE('',#171,#169,#85,.T.);
#209=EDGE_CURVE('',#172,#171,#144,.T.);
#210=EDGE_CURVE('',#155,#172,#86,.T.);
#211=EDGE_CURVE('',#173,#174,#145,.T.);
#212=EDGE_CURVE('',#160,#173,#87,.T.);
#213=EDGE_CURVE('',#159,#174,#88,.T.);
#214=EDGE_CURVE('',#174,#175,#89,.T.);
#215=EDGE_CURVE('',#162,#175,#90,.T.);
#216=EDGE_CURVE('',#175,#176,#146,.T.);
#217=EDGE_CURVE('',#161,#176,#91,.T.);
#218=EDGE_CURVE('',#176,#173,#92,.T.);
#219=EDGE_CURVE('',#177,#178,#147,.T.);
#220=EDGE_CURVE('',#164,#177,#93,.T.);
#221=EDGE_CURVE('',#163,#178,#94,.T.);
#222=EDGE_CURVE('',#178,#179,#95,.T.);
#223=EDGE_CURVE('',#166,#179,#96,.T.);
#224=EDGE_CURVE('',#179,#180,#148,.T.);
#225=EDGE_CURVE('',#165,#180,#97,.T.);
#226=EDGE_CURVE('',#180,#177,#98,.T.);
#227=EDGE_CURVE('',#170,#149,#99,.T.);
#228=EDGE_CURVE('',#168,#172,#100,.T.);
#229=ORIENTED_EDGE('',*,*,#181,.T.);
#230=ORIENTED_EDGE('',*,*,#182,.T.);
#231=ORIENTED_EDGE('',*,*,#183,.T.);
#232=ORIENTED_EDGE('',*,*,#184,.T.);
#233=ORIENTED_EDGE('',*,*,#183,.F.);
#234=ORIENTED_EDGE('',*,*,#185,.T.);
#235=ORIENTED_EDGE('',*,*,#186,.F.);
#236=ORIENTED_EDGE('',*,*,#187,.T.);
#237=ORIENTED_EDGE('',*,*,#188,.F.);
#238=ORIENTED_EDGE('',*,*,#189,.T.);
#239=ORIENTED_EDGE('',*,*,#190,.F.);
#240=ORIENTED_EDGE('',*,*,#191,.T.);
#241=ORIENTED_EDGE('',*,*,#192,.T.);
#242=ORIENTED_EDGE('',*,*,#193,.T.);
#243=ORIENTED_EDGE('',*,*,#194,.T.);
#244=ORIENTED_EDGE('',*,*,#195,.T.);
#245=ORIENTED_EDGE('',*,*,#196,.T.);
#246=ORIENTED_EDGE('',*,*,#197,.T.);
#247=ORIENTED_EDGE('',*,*,#198,.T.);
#248=ORIENTED_EDGE('',*,*,#199,.T.);
#249=ORIENTED_EDGE('',*,*,#182,.F.);
#250=ORIENTED_EDGE('',*,*,#200,.T.);
#251=ORIENTED_EDGE('',*,*,#201,.F.);
#252=ORIENTED_EDGE('',*,*,#185,.F.);
#253=ORIENTED_EDGE('',*,*,#202,.T.);
#254=ORIENTED_EDGE('',*,*,#203,.T.);
#255=ORIENTED_EDGE('',*,*,#186,.T.);
#256=ORIENTED_EDGE('',*,*,#201,.T.);
#257=ORIENTED_EDGE('',*,*,#204,.T.);
#258=ORIENTED_EDGE('',*,*,#205,.T.);
#259=ORIENTED_EDGE('',*,*,#190,.T.);
#260=ORIENTED_EDGE('',*,*,#206,.T.);
#261=ORIENTED_EDGE('',*,*,#206,.F.);
#262=ORIENTED_EDGE('',*,*,#189,.F.);
#263=ORIENTED_EDGE('',*,*,#207,.F.);
#264=ORIENTED_EDGE('',*,*,#208,.T.);
#265=ORIENTED_EDGE('',*,*,#209,.T.);
#266=ORIENTED_EDGE('',*,*,#207,.T.);
#267=ORIENTED_EDGE('',*,*,#188,.T.);
#268=ORIENTED_EDGE('',*,*,#210,.T.);
#269=ORIENTED_EDGE('',*,*,#211,.F.);
#270=ORIENTED_EDGE('',*,*,#212,.F.);
#271=ORIENTED_EDGE('',*,*,#192,.F.);
#272=ORIENTED_EDGE('',*,*,#213,.T.);
#273=ORIENTED_EDGE('',*,*,#214,.F.);
#274=ORIENTED_EDGE('',*,*,#213,.F.);
#275=ORIENTED_EDGE('',*,*,#195,.F.);
#276=ORIENTED_EDGE('',*,*,#215,.T.);
#277=ORIENTED_EDGE('',*,*,#216,.F.);
#278=ORIENTED_EDGE('',*,*,#215,.F.);
#279=ORIENTED_EDGE('',*,*,#194,.F.);
#280=ORIENTED_EDGE('',*,*,#217,.T.);
#281=ORIENTED_EDGE('',*,*,#218,.F.);
#282=ORIENTED_EDGE('',*,*,#217,.F.);
#283=ORIENTED_EDGE('',*,*,#193,.F.);
#284=ORIENTED_EDGE('',*,*,#212,.T.);
#285=ORIENTED_EDGE('',*,*,#219,.F.);
#286=ORIENTED_EDGE('',*,*,#220,.F.);
#287=ORIENTED_EDGE('',*,*,#196,.F.);
#288=ORIENTED_EDGE('',*,*,#221,.T.);
#289=ORIENTED_EDGE('',*,*,#222,.F.);
#290=ORIENTED_EDGE('',*,*,#221,.F.);
#291=ORIENTED_EDGE('',*,*,#199,.F.);
#292=ORIENTED_EDGE('',*,*,#223,.T.);
#293=ORIENTED_EDGE('',*,*,#224,.F.);
#294=ORIENTED_EDGE('',*,*,#223,.F.);
#295=ORIENTED_EDGE('',*,*,#198,.F.);
#296=ORIENTED_EDGE('',*,*,#225,.T.);
#297=ORIENTED_EDGE('',*,*,#226,.F.);
#298=ORIENTED_EDGE('',*,*,#225,.F.);
#299=ORIENTED_EDGE('',*,*,#197,.F.);
#300=ORIENTED_EDGE('',*,*,#220,.T.);
#301=ORIENTED_EDGE('',*,*,#184,.F.);
#302=ORIENTED_EDGE('',*,*,#191,.F.);
#303=ORIENTED_EDGE('',*,*,#205,.F.);
#304=ORIENTED_EDGE('',*,*,#227,.T.);
#305=ORIENTED_EDGE('',*,*,#203,.F.);
#306=ORIENTED_EDGE('',*,*,#228,.T.);
#307=ORIENTED_EDGE('',*,*,#210,.F.);
#308=ORIENTED_EDGE('',*,*,#187,.F.);
#309=ORIENTED_EDGE('',*,*,#181,.F.);
#310=ORIENTED_EDGE('',*,*,#227,.F.);
#311=ORIENTED_EDGE('',*,*,#204,.F.);
#312=ORIENTED_EDGE('',*,*,#208,.F.);
#313=ORIENTED_EDGE('',*,*,#209,.F.);
#314=ORIENTED_EDGE('',*,*,#228,.F.);
#315=ORIENTED_EDGE('',*,*,#202,.F.);
#316=ORIENTED_EDGE('',*,*,#200,.F.);
#317=ORIENTED_EDGE('',*,*,#211,.T.);
#318=ORIENTED_EDGE('',*,*,#214,.T.);
#319=ORIENTED_EDGE('',*,*,#216,.T.);
#320=ORIENTED_EDGE('',*,*,#218,.T.);
#321=ORIENTED_EDGE('',*,*,#219,.T.);
#322=ORIENTED_EDGE('',*,*,#222,.T.);
#323=ORIENTED_EDGE('',*,*,#224,.T.);
#324=ORIENTED_EDGE('',*,*,#226,.T.);
#325=CYLINDRICAL_SURFACE('',#374,5.);
#326=CYLINDRICAL_SURFACE('',#386,5.);
#327=CYLINDRICAL_SURFACE('',#388,5.);
#328=CYLINDRICAL_SURFACE('',#391,5.);
#329=CYLINDRICAL_SURFACE('',#393,3.50000000000001);
#330=CYLINDRICAL_SURFACE('',#396,3.50000000000001);
#331=CYLINDRICAL_SURFACE('',#399,3.5);
#332=CYLINDRICAL_SURFACE('',#402,3.5);
#333=ADVANCED_FACE('',(#29),#325,.T.);
#334=ADVANCED_FACE('',(#30,#15,#16),#19,.F.);
#335=ADVANCED_FACE('',(#31),#20,.T.);
#336=ADVANCED_FACE('',(#32),#326,.T.);
#337=ADVANCED_FACE('',(#33),#327,.T.);
#338=ADVANCED_FACE('',(#34),#21,.T.);
#339=ADVANCED_FACE('',(#35),#328,.T.);
#340=ADVANCED_FACE('',(#36),#329,.F.);
#341=ADVANCED_FACE('',(#37),#22,.F.);
#342=ADVANCED_FACE('',(#38),#330,.F.);
#343=ADVANCED_FACE('',(#39),#23,.F.);
#344=ADVANCED_FACE('',(#40),#331,.F.);
#345=ADVANCED_FACE('',(#41),#24,.F.);
#346=ADVANCED_FACE('',(#42),#332,.F.);
#347=ADVANCED_FACE('',(#43),#25,.F.);
#348=ADVANCED_FACE('',(#44),#26,.T.);
#349=ADVANCED_FACE('',(#45),#27,.T.);
#350=ADVANCED_FACE('',(#46,#17,#18),#28,.T.);
#351=CLOSED_SHELL('',(#333,#334,#335,#336,#337,#338,#339,#340,#341,#342,
#343,#344,#345,#346,#347,#348,#349,#350));
#352=DERIVED_UNIT_ELEMENT(#355,1.);
#353=DERIVED_UNIT_ELEMENT(#614,-3.);
#354=DIMENSIONAL_EXPONENTS(0.,1.,0.,0.,0.,0.,0.);
#355=(
CONVERSION_BASED_UNIT('gram',#357)
MASS_UNIT()
NAMED_UNIT(#354)
);
#356=(
MASS_UNIT()
NAMED_UNIT(*)
SI_UNIT(.KILO.,.GRAM.)
);
#357=MASS_MEASURE_WITH_UNIT(MASS_MEASURE(0.001),#356);
#358=DERIVED_UNIT((#352,#353));
#359=MEASURE_REPRESENTATION_ITEM('density measure',
POSITIVE_RATIO_MEASURE(8.94),#358);
#360=PROPERTY_DEFINITION_REPRESENTATION(#365,#362);
#361=PROPERTY_DEFINITION_REPRESENTATION(#366,#363);
#362=REPRESENTATION('material name',(#364),#611);
#363=REPRESENTATION('density',(#359),#611);
#364=DESCRIPTIVE_REPRESENTATION_ITEM('\X2\041C04350434044C\X0\',
'\X2\041C04350434044C\X0\');
#365=PROPERTY_DEFINITION('material property','material name',#621);
#366=PROPERTY_DEFINITION('material property','density of part',#621);
#367=DATE_TIME_ROLE('creation_date');
#368=APPLIED_DATE_AND_TIME_ASSIGNMENT(#369,#367,(#621));
#369=DATE_AND_TIME(#370,#371);
#370=CALENDAR_DATE(2020,11,2);
#371=LOCAL_TIME(0,0,0.,#372);
#372=COORDINATED_UNIVERSAL_TIME_OFFSET(0,0,.BEHIND.);
#373=AXIS2_PLACEMENT_3D('',#510,#408,#409);
#374=AXIS2_PLACEMENT_3D('',#511,#410,#411);
#375=AXIS2_PLACEMENT_3D('',#514,#412,#413);
#376=AXIS2_PLACEMENT_3D('',#518,#415,#416);
#377=AXIS2_PLACEMENT_3D('',#520,#418,#419);
#378=AXIS2_PLACEMENT_3D('',#524,#421,#422);
#379=AXIS2_PLACEMENT_3D('',#528,#424,#425);
#380=AXIS2_PLACEMENT_3D('',#532,#427,#428);
#381=AXIS2_PLACEMENT_3D('',#536,#430,#431);
#382=AXIS2_PLACEMENT_3D('',#540,#433,#434);
#383=AXIS2_PLACEMENT_3D('',#544,#436,#437);
#384=AXIS2_PLACEMENT_3D('',#548,#439,#440);
#385=AXIS2_PLACEMENT_3D('',#550,#442,#443);
#386=AXIS2_PLACEMENT_3D('',#554,#446,#447);
#387=AXIS2_PLACEMENT_3D('',#556,#448,#449);
#388=AXIS2_PLACEMENT_3D('',#558,#451,#452);
#389=AXIS2_PLACEMENT_3D('',#561,#453,#454);
#390=AXIS2_PLACEMENT_3D('',#564,#457,#458);
#391=AXIS2_PLACEMENT_3D('',#568,#461,#462);
#392=AXIS2_PLACEMENT_3D('',#570,#463,#464);
#393=AXIS2_PLACEMENT_3D('',#572,#466,#467);
#394=AXIS2_PLACEMENT_3D('',#575,#468,#469);
#395=AXIS2_PLACEMENT_3D('',#578,#472,#473);
#396=AXIS2_PLACEMENT_3D('',#582,#476,#477);
#397=AXIS2_PLACEMENT_3D('',#584,#478,#479);
#398=AXIS2_PLACEMENT_3D('',#586,#481,#482);
#399=AXIS2_PLACEMENT_3D('',#588,#484,#485);
#400=AXIS2_PLACEMENT_3D('',#591,#486,#487);
#401=AXIS2_PLACEMENT_3D('',#594,#490,#491);
#402=AXIS2_PLACEMENT_3D('',#598,#494,#495);
#403=AXIS2_PLACEMENT_3D('',#600,#496,#497);
#404=AXIS2_PLACEMENT_3D('',#602,#499,#500);
#405=AXIS2_PLACEMENT_3D('',#604,#502,#503);
#406=AXIS2_PLACEMENT_3D('',#606,#505,#506);
#407=AXIS2_PLACEMENT_3D('',#608,#508,#509);
#408=DIRECTION('axis',(0.,0.,1.));
#409=DIRECTION('refdir',(1.,0.,0.));
#410=DIRECTION('center_axis',(0.,1.,0.));
#411=DIRECTION('ref_axis',(-0.707106781186547,0.,-0.707106781186547));
#412=DIRECTION('center_axis',(0.,-1.,0.));
#413=DIRECTION('ref_axis',(-0.707106781186547,0.,-0.707106781186547));
#414=DIRECTION('',(0.,-1.,0.));
#415=DIRECTION('center_axis',(0.,1.,0.));
#416=DIRECTION('ref_axis',(-0.707106781186547,0.,-0.707106781186547));
#417=DIRECTION('',(0.,1.,0.));
#418=DIRECTION('center_axis',(0.,1.,0.));
#419=DIRECTION('ref_axis',(0.,0.,1.));
#420=DIRECTION('',(1.,0.,0.));
#421=DIRECTION('center_axis',(0.,1.,0.));
#422=DIRECTION('ref_axis',(0.707106781186547,0.,-0.707106781186547));
#423=DIRECTION('',(1.94289029309402E-16,0.,1.));
#424=DIRECTION('center_axis',(0.,1.,0.));
#425=DIRECTION('ref_axis',(0.707106781186548,0.,0.707106781186547));
#426=DIRECTION('',(-1.,0.,0.));
#427=DIRECTION('center_axis',(0.,1.,0.));
#428=DIRECTION('ref_axis',(-0.707106781186547,0.,0.707106781186547));
#429=DIRECTION('',(-5.55111512312578E-17,0.,-1.));
#430=DIRECTION('center_axis',(0.,1.,0.));
#431=DIRECTION('ref_axis',(-1.,0.,0.));
#432=DIRECTION('',(6.16790569236198E-17,0.,-1.));
#433=DIRECTION('center_axis',(0.,1.,0.));
#434=DIRECTION('ref_axis',(1.,0.,0.));
#435=DIRECTION('',(0.,0.,1.));
#436=DIRECTION('center_axis',(0.,1.,0.));
#437=DIRECTION('ref_axis',(-1.,0.,0.));
#438=DIRECTION('',(1.85037170770859E-16,0.,-1.));
#439=DIRECTION('center_axis',(0.,1.,0.));
#440=DIRECTION('ref_axis',(1.,0.,0.));
#441=DIRECTION('',(0.,0.,1.));
#442=DIRECTION('center_axis',(0.,0.,-1.));
#443=DIRECTION('ref_axis',(-1.,0.,0.));
#444=DIRECTION('',(1.,0.,0.));
#445=DIRECTION('',(0.,1.,0.));
#446=DIRECTION('center_axis',(0.,1.,0.));
#447=DIRECTION('ref_axis',(0.707106781186547,0.,-0.707106781186547));
#448=DIRECTION('center_axis',(0.,-1.,0.));
#449=DIRECTION('ref_axis',(0.707106781186547,0.,-0.707106781186547));
#450=DIRECTION('',(0.,-1.,0.));
#451=DIRECTION('center_axis',(0.,1.,0.));
#452=DIRECTION('ref_axis',(-0.707106781186547,0.,0.707106781186547));
#453=DIRECTION('center_axis',(0.,-1.,0.));
#454=DIRECTION('ref_axis',(-0.707106781186547,0.,0.707106781186547));
#455=DIRECTION('',(0.,-1.,0.));
#456=DIRECTION('',(0.,1.,0.));
#457=DIRECTION('center_axis',(0.,0.,1.));
#458=DIRECTION('ref_axis',(1.,0.,0.));
#459=DIRECTION('',(0.,-1.,0.));
#460=DIRECTION('',(-1.,0.,0.));
#461=DIRECTION('center_axis',(0.,1.,0.));
#462=DIRECTION('ref_axis',(0.707106781186548,0.,0.707106781186547));
#463=DIRECTION('center_axis',(0.,-1.,0.));
#464=DIRECTION('ref_axis',(0.707106781186548,0.,0.707106781186547));
#465=DIRECTION('',(0.,1.,0.));
#466=DIRECTION('center_axis',(0.,1.,0.));
#467=DIRECTION('ref_axis',(-1.,0.,0.));
#468=DIRECTION('center_axis',(0.,-1.,0.));
#469=DIRECTION('ref_axis',(-1.,0.,0.));
#470=DIRECTION('',(0.,1.,0.));
#471=DIRECTION('',(0.,1.,0.));
#472=DIRECTION('center_axis',(-1.,0.,0.));
#473=DIRECTION('ref_axis',(0.,0.,1.));
#474=DIRECTION('',(0.,0.,-1.));
#475=DIRECTION('',(0.,1.,0.));
#476=DIRECTION('center_axis',(0.,1.,0.));
#477=DIRECTION('ref_axis',(1.,0.,0.));
#478=DIRECTION('center_axis',(0.,-1.,0.));
#479=DIRECTION('ref_axis',(1.,0.,0.));
#480=DIRECTION('',(0.,1.,0.));
#481=DIRECTION('center_axis',(1.,0.,6.16790569236198E-17));
#482=DIRECTION('ref_axis',(6.16790569236198E-17,0.,-1.));
#483=DIRECTION('',(-6.16790569236198E-17,0.,1.));
#484=DIRECTION('center_axis',(0.,1.,0.));
#485=DIRECTION('ref_axis',(-1.,0.,0.));
#486=DIRECTION('center_axis',(0.,-1.,0.));
#487=DIRECTION('ref_axis',(-1.,0.,0.));
#488=DIRECTION('',(0.,1.,0.));
#489=DIRECTION('',(0.,1.,0.));
#490=DIRECTION('center_axis',(-1.,0.,0.));
#491=DIRECTION('ref_axis',(0.,0.,1.));
#492=DIRECTION('',(0.,0.,-1.));
#493=DIRECTION('',(0.,1.,0.));
#494=DIRECTION('center_axis',(0.,1.,0.));
#495=DIRECTION('ref_axis',(1.,0.,0.));
#496=DIRECTION('center_axis',(0.,-1.,0.));
#497=DIRECTION('ref_axis',(1.,0.,0.));
#498=DIRECTION('',(0.,1.,0.));
#499=DIRECTION('center_axis',(1.,0.,1.85037170770859E-16));
#500=DIRECTION('ref_axis',(1.85037170770859E-16,0.,-1.));
#501=DIRECTION('',(-1.85037170770859E-16,0.,1.));
#502=DIRECTION('center_axis',(-1.,0.,5.55111512312578E-17));
#503=DIRECTION('ref_axis',(5.55111512312578E-17,0.,1.));
#504=DIRECTION('',(-5.55111512312578E-17,0.,-1.));
#505=DIRECTION('center_axis',(1.,0.,-1.94289029309402E-16));
#506=DIRECTION('ref_axis',(-1.94289029309402E-16,0.,-1.));
#507=DIRECTION('',(1.94289029309402E-16,0.,1.));
#508=DIRECTION('center_axis',(0.,1.,0.));
#509=DIRECTION('ref_axis',(0.,0.,1.));
#510=CARTESIAN_POINT('',(0.,0.,0.));
#511=CARTESIAN_POINT('Origin',(-18.,0.,-75.));
#512=CARTESIAN_POINT('',(-23.,1.,-75.));
#513=CARTESIAN_POINT('',(-18.,1.,-80.));
#514=CARTESIAN_POINT('Origin',(-18.,1.,-75.));
#515=CARTESIAN_POINT('',(-18.,0.,-80.));
#516=CARTESIAN_POINT('',(-18.,0.,-80.));
#517=CARTESIAN_POINT('',(-23.,0.,-75.));
#518=CARTESIAN_POINT('Origin',(-18.,0.,-75.));
#519=CARTESIAN_POINT('',(-23.,0.,-75.));
#520=CARTESIAN_POINT('Origin',(-11.5,0.,-40.));
#521=CARTESIAN_POINT('',(-5.00000000000001,0.,-80.));
#522=CARTESIAN_POINT('',(-23.,0.,-80.));
#523=CARTESIAN_POINT('',(-1.45716771982052E-14,0.,-75.));
#524=CARTESIAN_POINT('Origin',(-5.00000000000001,0.,-75.));
#525=CARTESIAN_POINT('',(-9.71445146547012E-16,0.,-5.));
#526=CARTESIAN_POINT('',(-1.55431223447522E-14,0.,-80.));
#527=CARTESIAN_POINT('',(-5.,0.,0.));
#528=CARTESIAN_POINT('Origin',(-5.,0.,-5.));
#529=CARTESIAN_POINT('',(-18.,0.,0.));
#530=CARTESIAN_POINT('',(0.,0.,0.));
#531=CARTESIAN_POINT('',(-23.,0.,-5.));
#532=CARTESIAN_POINT('Origin',(-18.,0.,-5.));
#533=CARTESIAN_POINT('',(-23.,0.,0.));
#534=CARTESIAN_POINT('',(-15.,0.,-49.5));
#535=CARTESIAN_POINT('',(-8.,0.,-49.5));
#536=CARTESIAN_POINT('Origin',(-11.5,0.,-49.5));
#537=CARTESIAN_POINT('',(-8.,0.,-67.5));
#538=CARTESIAN_POINT('',(-8.,0.,-53.75));
#539=CARTESIAN_POINT('',(-15.,0.,-67.5));
#540=CARTESIAN_POINT('Origin',(-11.5,0.,-67.5));
#541=CARTESIAN_POINT('',(-15.,0.,-44.75));
#542=CARTESIAN_POINT('',(-15.,0.,-12.5));
#543=CARTESIAN_POINT('',(-8.00000000000001,0.,-12.5));
#544=CARTESIAN_POINT('Origin',(-11.5,0.,-12.5));
#545=CARTESIAN_POINT('',(-8.,0.,-30.5));
#546=CARTESIAN_POINT('',(-8.,0.,-35.25));
#547=CARTESIAN_POINT('',(-15.,0.,-30.5));
#548=CARTESIAN_POINT('Origin',(-11.5,0.,-30.5));
#549=CARTESIAN_POINT('',(-15.,0.,-26.25));
#550=CARTESIAN_POINT('Origin',(-23.,0.,-80.));
#551=CARTESIAN_POINT('',(-5.00000000000001,1.,-80.));
#552=CARTESIAN_POINT('',(-23.,1.,-80.));
#553=CARTESIAN_POINT('',(-5.00000000000001,0.,-80.));
#554=CARTESIAN_POINT('Origin',(-5.00000000000001,0.,-75.));
#555=CARTESIAN_POINT('',(-1.45716771982052E-14,1.,-75.));
#556=CARTESIAN_POINT('Origin',(-5.00000000000001,1.,-75.));
#557=CARTESIAN_POINT('',(-1.4432899320127E-14,0.,-75.));
#558=CARTESIAN_POINT('Origin',(-18.,0.,-5.));
#559=CARTESIAN_POINT('',(-18.,1.,0.));
#560=CARTESIAN_POINT('',(-23.,1.,-5.));
#561=CARTESIAN_POINT('Origin',(-18.,1.,-5.));
#562=CARTESIAN_POINT('',(-23.,0.,-5.));
#563=CARTESIAN_POINT('',(-18.,0.,0.));
#564=CARTESIAN_POINT('Origin',(0.,0.,0.));
#565=CARTESIAN_POINT('',(-5.,1.,0.));
#566=CARTESIAN_POINT('',(-5.,0.,0.));
#567=CARTESIAN_POINT('',(0.,1.,0.));
#568=CARTESIAN_POINT('Origin',(-5.,0.,-5.));
#569=CARTESIAN_POINT('',(-9.71445146547012E-16,1.,-5.));
#570=CARTESIAN_POINT('Origin',(-5.,1.,-5.));
#571=CARTESIAN_POINT('',(-1.11022302462516E-15,0.,-5.));
#572=CARTESIAN_POINT('Origin',(-11.5,0.,-49.5));
#573=CARTESIAN_POINT('',(-8.,1.,-49.5));
#574=CARTESIAN_POINT('',(-15.,1.,-49.5));
#575=CARTESIAN_POINT('Origin',(-11.5,1.,-49.5));
#576=CARTESIAN_POINT('',(-8.,0.,-49.5));
#577=CARTESIAN_POINT('',(-15.,0.,-49.5));
#578=CARTESIAN_POINT('Origin',(-15.,0.,-49.5));
#579=CARTESIAN_POINT('',(-15.,1.,-67.5));
#580=CARTESIAN_POINT('',(-15.,1.,-44.75));
#581=CARTESIAN_POINT('',(-15.,0.,-67.5));
#582=CARTESIAN_POINT('Origin',(-11.5,0.,-67.5));
#583=CARTESIAN_POINT('',(-8.,1.,-67.5));
#584=CARTESIAN_POINT('Origin',(-11.5,1.,-67.5));
#585=CARTESIAN_POINT('',(-8.,0.,-67.5));
#586=CARTESIAN_POINT('Origin',(-8.,0.,-67.5));
#587=CARTESIAN_POINT('',(-8.,1.,-53.75));
#588=CARTESIAN_POINT('Origin',(-11.5,0.,-12.5));
#589=CARTESIAN_POINT('',(-8.00000000000001,1.,-12.5));
#590=CARTESIAN_POINT('',(-15.,1.,-12.5));
#591=CARTESIAN_POINT('Origin',(-11.5,1.,-12.5));
#592=CARTESIAN_POINT('',(-8.00000000000001,0.,-12.5));
#593=CARTESIAN_POINT('',(-15.,0.,-12.5));
#594=CARTESIAN_POINT('Origin',(-15.,0.,-12.5));
#595=CARTESIAN_POINT('',(-15.,1.,-30.5));
#596=CARTESIAN_POINT('',(-15.,1.,-26.25));
#597=CARTESIAN_POINT('',(-15.,0.,-30.5));
#598=CARTESIAN_POINT('Origin',(-11.5,0.,-30.5));
#599=CARTESIAN_POINT('',(-8.,1.,-30.5));
#600=CARTESIAN_POINT('Origin',(-11.5,1.,-30.5));
#601=CARTESIAN_POINT('',(-8.,0.,-30.5));
#602=CARTESIAN_POINT('Origin',(-8.,0.,-30.5));
#603=CARTESIAN_POINT('',(-8.,1.,-35.25));
#604=CARTESIAN_POINT('Origin',(-23.,0.,0.));
#605=CARTESIAN_POINT('',(-23.,1.,0.));
#606=CARTESIAN_POINT('Origin',(-1.55431223447522E-14,0.,-80.));
#607=CARTESIAN_POINT('',(-1.55431223447522E-14,1.,-80.));
#608=CARTESIAN_POINT('Origin',(-11.5,1.,-40.));
#609=UNCERTAINTY_MEASURE_WITH_UNIT(LENGTH_MEASURE(0.01),#613,
'DISTANCE_ACCURACY_VALUE',
'Maximum model space distance between geometric entities at asserted c
onnectivities');
#610=UNCERTAINTY_MEASURE_WITH_UNIT(LENGTH_MEASURE(0.01),#613,
'DISTANCE_ACCURACY_VALUE',
'Maximum model space distance between geometric entities at asserted c
onnectivities');
#611=(
GEOMETRIC_REPRESENTATION_CONTEXT(3)
GLOBAL_UNCERTAINTY_ASSIGNED_CONTEXT((#609))
GLOBAL_UNIT_ASSIGNED_CONTEXT((#613,#615,#616))
REPRESENTATION_CONTEXT('','3D')
);
#612=(
GEOMETRIC_REPRESENTATION_CONTEXT(3)
GLOBAL_UNCERTAINTY_ASSIGNED_CONTEXT((#610))
GLOBAL_UNIT_ASSIGNED_CONTEXT((#613,#615,#616))
REPRESENTATION_CONTEXT('','3D')
);
#613=(
LENGTH_UNIT()
NAMED_UNIT(*)
SI_UNIT(.MILLI.,.METRE.)
);
#614=(
LENGTH_UNIT()
NAMED_UNIT(*)
SI_UNIT(.CENTI.,.METRE.)
);
#615=(
NAMED_UNIT(*)
PLANE_ANGLE_UNIT()
SI_UNIT($,.RADIAN.)
);
#616=(
NAMED_UNIT(*)
SI_UNIT($,.STERADIAN.)
SOLID_ANGLE_UNIT()
);
#617=SHAPE_DEFINITION_REPRESENTATION(#618,#619);
#618=PRODUCT_DEFINITION_SHAPE('',$,#621);
#619=SHAPE_REPRESENTATION('',(#373),#611);
#620=PRODUCT_DEFINITION_CONTEXT('part definition',#625,'design');
#621=PRODUCT_DEFINITION('1. PMZ','250030 PMZ',#622,#620);
#622=PRODUCT_DEFINITION_FORMATION('',$,#627);
#623=PRODUCT_RELATED_PRODUCT_CATEGORY('250030 PMZ','250030 PMZ',(#627));
#624=APPLICATION_PROTOCOL_DEFINITION('international standard',
'automotive_design',2009,#625);
#625=APPLICATION_CONTEXT(
'Core Data for Automotive Mechanical Design Process');
#626=PRODUCT_CONTEXT('part definition',#625,'mechanical');
#627=PRODUCT('1. PMZ','250030 PMZ',$,(#626));
#628=PRESENTATION_STYLE_ASSIGNMENT((#629));
#629=SURFACE_STYLE_USAGE(.BOTH.,#632);
#630=SURFACE_STYLE_RENDERING_WITH_PROPERTIES($,#636,(#631));
#631=SURFACE_STYLE_TRANSPARENT(0.);
#632=SURFACE_SIDE_STYLE('',(#633,#630));
#633=SURFACE_STYLE_FILL_AREA(#634);
#634=FILL_AREA_STYLE('',(#635));
#635=FILL_AREA_STYLE_COLOUR('',#636);
#636=COLOUR_RGB('',0.737254901960784,0.313725490196078,0.184313725490196);
ENDSEC;
END-ISO-10303-21;
