ISO-10303-21;
HEADER;
/* Generated by software containing ST-Developer
 * from STEP Tools, Inc. (www.steptools.com) 
 */

FILE_DESCRIPTION(
/* description */ (''),
/* implementation_level */ '2;1');

FILE_NAME(
/* name */ 'PPU.ipt.stp',
/* time_stamp */ '2023-05-17T09:47:26+03:00',
/* author */ ('\X2\042004420438044904350432\X0\ \X2\0410\X0\.\X2\041E\X0\.'),

/* organization */ (''),
/* preprocessor_version */ 'ST-DEVELOPER v19.2',
/* originating_system */ 'Autodesk Inventor 2023',
/* authorisation */ '');

FILE_SCHEMA (('AUTOMOTIVE_DESIGN { 1 0 10303 214 3 1 1 }'));
ENDSEC;

DATA;
#10=MECHANICAL_DESIGN_GEOMETRIC_PRESENTATION_REPRESENTATION('',(#358,#359,
#360,#361,#362,#363,#364),#661);
#11=SHAPE_REPRESENTATION_RELATIONSHIP('SRR','None',#668,#12);
#12=ADVANCED_BREP_SHAPE_REPRESENTATION('',(#13),#660);
#13=MANIFOLD_SOLID_BREP('\X2\04220432043504400434043E0435\X0\ \X2\04420435043B043E\X0\1',
#384);
#14=CYLINDRICAL_SURFACE('',#421,6.50000000000001);
#15=CYLINDRICAL_SURFACE('',#423,153.5);
#16=CYLINDRICAL_SURFACE('',#425,6.5);
#17=CYLINDRICAL_SURFACE('',#427,166.5);
#18=CYLINDRICAL_SURFACE('',#429,6.5);
#19=CYLINDRICAL_SURFACE('',#432,6.5);
#20=CYLINDRICAL_SURFACE('',#435,6.5);
#21=CYLINDRICAL_SURFACE('',#438,6.5);
#22=CYLINDRICAL_SURFACE('',#441,6.5);
#23=FACE_BOUND('',#69,.T.);
#24=FACE_BOUND('',#70,.T.);
#25=FACE_BOUND('',#71,.T.);
#26=FACE_BOUND('',#72,.T.);
#27=FACE_BOUND('',#91,.T.);
#28=FACE_BOUND('',#92,.T.);
#29=FACE_BOUND('',#93,.T.);
#30=FACE_BOUND('',#94,.T.);
#31=CIRCLE('',#408,6.5);
#32=CIRCLE('',#409,6.5);
#33=CIRCLE('',#410,6.5);
#34=CIRCLE('',#411,6.5);
#35=CIRCLE('',#412,6.5);
#36=CIRCLE('',#413,6.50000000000001);
#37=CIRCLE('',#414,166.5);
#38=CIRCLE('',#415,6.5);
#39=CIRCLE('',#416,153.5);
#40=CIRCLE('',#422,6.50000000000001);
#41=CIRCLE('',#424,153.5);
#42=CIRCLE('',#426,6.5);
#43=CIRCLE('',#428,166.5);
#44=CIRCLE('',#430,6.5);
#45=CIRCLE('',#433,6.5);
#46=CIRCLE('',#436,6.5);
#47=CIRCLE('',#439,6.5);
#48=CIRCLE('',#442,6.5);
#49=FACE_OUTER_BOUND('',#68,.T.);
#50=FACE_OUTER_BOUND('',#73,.T.);
#51=FACE_OUTER_BOUND('',#74,.T.);
#52=FACE_OUTER_BOUND('',#75,.T.);
#53=FACE_OUTER_BOUND('',#76,.T.);
#54=FACE_OUTER_BOUND('',#77,.T.);
#55=FACE_OUTER_BOUND('',#78,.T.);
#56=FACE_OUTER_BOUND('',#79,.T.);
#57=FACE_OUTER_BOUND('',#80,.T.);
#58=FACE_OUTER_BOUND('',#81,.T.);
#59=FACE_OUTER_BOUND('',#82,.T.);
#60=FACE_OUTER_BOUND('',#83,.T.);
#61=FACE_OUTER_BOUND('',#84,.T.);
#62=FACE_OUTER_BOUND('',#85,.T.);
#63=FACE_OUTER_BOUND('',#86,.T.);
#64=FACE_OUTER_BOUND('',#87,.T.);
#65=FACE_OUTER_BOUND('',#88,.T.);
#66=FACE_OUTER_BOUND('',#89,.T.);
#67=FACE_OUTER_BOUND('',#90,.T.);
#68=EDGE_LOOP('',(#246,#247,#248,#249));
#69=EDGE_LOOP('',(#250));
#70=EDGE_LOOP('',(#251,#252,#253,#254));
#71=EDGE_LOOP('',(#255,#256,#257,#258));
#72=EDGE_LOOP('',(#259,#260,#261,#262));
#73=EDGE_LOOP('',(#263,#264,#265,#266));
#74=EDGE_LOOP('',(#267,#268,#269,#270));
#75=EDGE_LOOP('',(#271,#272,#273,#274));
#76=EDGE_LOOP('',(#275,#276,#277,#278));
#77=EDGE_LOOP('',(#279,#280,#281,#282));
#78=EDGE_LOOP('',(#283,#284,#285,#286));
#79=EDGE_LOOP('',(#287,#288,#289,#290));
#80=EDGE_LOOP('',(#291,#292,#293,#294));
#81=EDGE_LOOP('',(#295,#296,#297,#298));
#82=EDGE_LOOP('',(#299,#300,#301,#302));
#83=EDGE_LOOP('',(#303,#304,#305,#306));
#84=EDGE_LOOP('',(#307,#308,#309,#310));
#85=EDGE_LOOP('',(#311,#312,#313,#314));
#86=EDGE_LOOP('',(#315,#316,#317,#318));
#87=EDGE_LOOP('',(#319,#320,#321,#322));
#88=EDGE_LOOP('',(#323,#324,#325,#326));
#89=EDGE_LOOP('',(#327,#328,#329,#330));
#90=EDGE_LOOP('',(#331,#332,#333,#334));
#91=EDGE_LOOP('',(#335,#336,#337,#338));
#92=EDGE_LOOP('',(#339,#340,#341,#342));
#93=EDGE_LOOP('',(#343,#344,#345,#346));
#94=EDGE_LOOP('',(#347));
#95=LINE('',#557,#128);
#96=LINE('',#559,#129);
#97=LINE('',#561,#130);
#98=LINE('',#562,#131);
#99=LINE('',#569,#132);
#100=LINE('',#572,#133);
#101=LINE('',#577,#134);
#102=LINE('',#580,#135);
#103=LINE('',#591,#136);
#104=LINE('',#593,#137);
#105=LINE('',#594,#138);
#106=LINE('',#597,#139);
#107=LINE('',#598,#140);
#108=LINE('',#601,#141);
#109=LINE('',#602,#142);
#110=LINE('',#604,#143);
#111=LINE('',#609,#144);
#112=LINE('',#610,#145);
#113=LINE('',#614,#146);
#114=LINE('',#618,#147);
#115=LINE('',#625,#148);
#116=LINE('',#626,#149);
#117=LINE('',#629,#150);
#118=LINE('',#630,#151);
#119=LINE('',#634,#152);
#120=LINE('',#636,#153);
#121=LINE('',#641,#154);
#122=LINE('',#642,#155);
#123=LINE('',#645,#156);
#124=LINE('',#646,#157);
#125=LINE('',#650,#158);
#126=LINE('',#652,#159);
#127=LINE('',#655,#160);
#128=VECTOR('',#448,10.);
#129=VECTOR('',#449,10.);
#130=VECTOR('',#450,10.);
#131=VECTOR('',#451,10.);
#132=VECTOR('',#456,10.);
#133=VECTOR('',#459,10.);
#134=VECTOR('',#462,10.);
#135=VECTOR('',#465,10.);
#136=VECTOR('',#476,10.);
#137=VECTOR('',#477,10.);
#138=VECTOR('',#478,10.);
#139=VECTOR('',#481,10.);
#140=VECTOR('',#482,10.);
#141=VECTOR('',#485,10.);
#142=VECTOR('',#486,10.);
#143=VECTOR('',#489,10.);
#144=VECTOR('',#494,10.);
#145=VECTOR('',#495,10.);
#146=VECTOR('',#500,10.);
#147=VECTOR('',#505,10.);
#148=VECTOR('',#514,10.);
#149=VECTOR('',#515,10.);
#150=VECTOR('',#518,10.);
#151=VECTOR('',#519,10.);
#152=VECTOR('',#524,10.);
#153=VECTOR('',#527,10.);
#154=VECTOR('',#532,10.);
#155=VECTOR('',#533,10.);
#156=VECTOR('',#536,10.);
#157=VECTOR('',#537,10.);
#158=VECTOR('',#542,10.);
#159=VECTOR('',#545,10.);
#160=VECTOR('',#548,6.5);
#161=VERTEX_POINT('',#555);
#162=VERTEX_POINT('',#556);
#163=VERTEX_POINT('',#558);
#164=VERTEX_POINT('',#560);
#165=VERTEX_POINT('',#563);
#166=VERTEX_POINT('',#565);
#167=VERTEX_POINT('',#566);
#168=VERTEX_POINT('',#568);
#169=VERTEX_POINT('',#570);
#170=VERTEX_POINT('',#573);
#171=VERTEX_POINT('',#574);
#172=VERTEX_POINT('',#576);
#173=VERTEX_POINT('',#578);
#174=VERTEX_POINT('',#581);
#175=VERTEX_POINT('',#582);
#176=VERTEX_POINT('',#584);
#177=VERTEX_POINT('',#586);
#178=VERTEX_POINT('',#590);
#179=VERTEX_POINT('',#592);
#180=VERTEX_POINT('',#596);
#181=VERTEX_POINT('',#600);
#182=VERTEX_POINT('',#606);
#183=VERTEX_POINT('',#607);
#184=VERTEX_POINT('',#612);
#185=VERTEX_POINT('',#616);
#186=VERTEX_POINT('',#622);
#187=VERTEX_POINT('',#623);
#188=VERTEX_POINT('',#628);
#189=VERTEX_POINT('',#632);
#190=VERTEX_POINT('',#638);
#191=VERTEX_POINT('',#639);
#192=VERTEX_POINT('',#644);
#193=VERTEX_POINT('',#648);
#194=VERTEX_POINT('',#654);
#195=EDGE_CURVE('',#161,#162,#95,.T.);
#196=EDGE_CURVE('',#163,#161,#96,.T.);
#197=EDGE_CURVE('',#164,#163,#97,.T.);
#198=EDGE_CURVE('',#162,#164,#98,.T.);
#199=EDGE_CURVE('',#165,#165,#31,.T.);
#200=EDGE_CURVE('',#166,#167,#32,.T.);
#201=EDGE_CURVE('',#167,#168,#99,.T.);
#202=EDGE_CURVE('',#168,#169,#33,.T.);
#203=EDGE_CURVE('',#169,#166,#100,.T.);
#204=EDGE_CURVE('',#170,#171,#34,.T.);
#205=EDGE_CURVE('',#171,#172,#101,.T.);
#206=EDGE_CURVE('',#172,#173,#35,.T.);
#207=EDGE_CURVE('',#173,#170,#102,.T.);
#208=EDGE_CURVE('',#174,#175,#36,.T.);
#209=EDGE_CURVE('',#175,#176,#37,.T.);
#210=EDGE_CURVE('',#176,#177,#38,.T.);
#211=EDGE_CURVE('',#177,#174,#39,.T.);
#212=EDGE_CURVE('',#162,#178,#103,.T.);
#213=EDGE_CURVE('',#178,#179,#104,.T.);
#214=EDGE_CURVE('',#161,#179,#105,.T.);
#215=EDGE_CURVE('',#179,#180,#106,.T.);
#216=EDGE_CURVE('',#163,#180,#107,.T.);
#217=EDGE_CURVE('',#180,#181,#108,.T.);
#218=EDGE_CURVE('',#164,#181,#109,.T.);
#219=EDGE_CURVE('',#181,#178,#110,.T.);
#220=EDGE_CURVE('',#182,#183,#40,.T.);
#221=EDGE_CURVE('',#175,#182,#111,.T.);
#222=EDGE_CURVE('',#174,#183,#112,.T.);
#223=EDGE_CURVE('',#183,#184,#41,.T.);
#224=EDGE_CURVE('',#177,#184,#113,.T.);
#225=EDGE_CURVE('',#184,#185,#42,.T.);
#226=EDGE_CURVE('',#176,#185,#114,.T.);
#227=EDGE_CURVE('',#185,#182,#43,.T.);
#228=EDGE_CURVE('',#186,#187,#44,.T.);
#229=EDGE_CURVE('',#171,#186,#115,.T.);
#230=EDGE_CURVE('',#170,#187,#116,.T.);
#231=EDGE_CURVE('',#187,#188,#117,.T.);
#232=EDGE_CURVE('',#173,#188,#118,.T.);
#233=EDGE_CURVE('',#188,#189,#45,.T.);
#234=EDGE_CURVE('',#172,#189,#119,.T.);
#235=EDGE_CURVE('',#189,#186,#120,.T.);
#236=EDGE_CURVE('',#190,#191,#46,.T.);
#237=EDGE_CURVE('',#167,#190,#121,.T.);
#238=EDGE_CURVE('',#166,#191,#122,.T.);
#239=EDGE_CURVE('',#191,#192,#123,.T.);
#240=EDGE_CURVE('',#169,#192,#124,.T.);
#241=EDGE_CURVE('',#192,#193,#47,.T.);
#242=EDGE_CURVE('',#168,#193,#125,.T.);
#243=EDGE_CURVE('',#193,#190,#126,.T.);
#244=EDGE_CURVE('',#165,#194,#127,.T.);
#245=EDGE_CURVE('',#194,#194,#48,.T.);
#246=ORIENTED_EDGE('',*,*,#195,.F.);
#247=ORIENTED_EDGE('',*,*,#196,.F.);
#248=ORIENTED_EDGE('',*,*,#197,.F.);
#249=ORIENTED_EDGE('',*,*,#198,.F.);
#250=ORIENTED_EDGE('',*,*,#199,.T.);
#251=ORIENTED_EDGE('',*,*,#200,.T.);
#252=ORIENTED_EDGE('',*,*,#201,.T.);
#253=ORIENTED_EDGE('',*,*,#202,.T.);
#254=ORIENTED_EDGE('',*,*,#203,.T.);
#255=ORIENTED_EDGE('',*,*,#204,.T.);
#256=ORIENTED_EDGE('',*,*,#205,.T.);
#257=ORIENTED_EDGE('',*,*,#206,.T.);
#258=ORIENTED_EDGE('',*,*,#207,.T.);
#259=ORIENTED_EDGE('',*,*,#208,.T.);
#260=ORIENTED_EDGE('',*,*,#209,.T.);
#261=ORIENTED_EDGE('',*,*,#210,.T.);
#262=ORIENTED_EDGE('',*,*,#211,.T.);
#263=ORIENTED_EDGE('',*,*,#195,.T.);
#264=ORIENTED_EDGE('',*,*,#212,.T.);
#265=ORIENTED_EDGE('',*,*,#213,.T.);
#266=ORIENTED_EDGE('',*,*,#214,.F.);
#267=ORIENTED_EDGE('',*,*,#214,.T.);
#268=ORIENTED_EDGE('',*,*,#215,.T.);
#269=ORIENTED_EDGE('',*,*,#216,.F.);
#270=ORIENTED_EDGE('',*,*,#196,.T.);
#271=ORIENTED_EDGE('',*,*,#197,.T.);
#272=ORIENTED_EDGE('',*,*,#216,.T.);
#273=ORIENTED_EDGE('',*,*,#217,.T.);
#274=ORIENTED_EDGE('',*,*,#218,.F.);
#275=ORIENTED_EDGE('',*,*,#218,.T.);
#276=ORIENTED_EDGE('',*,*,#219,.T.);
#277=ORIENTED_EDGE('',*,*,#212,.F.);
#278=ORIENTED_EDGE('',*,*,#198,.T.);
#279=ORIENTED_EDGE('',*,*,#220,.F.);
#280=ORIENTED_EDGE('',*,*,#221,.F.);
#281=ORIENTED_EDGE('',*,*,#208,.F.);
#282=ORIENTED_EDGE('',*,*,#222,.T.);
#283=ORIENTED_EDGE('',*,*,#223,.F.);
#284=ORIENTED_EDGE('',*,*,#222,.F.);
#285=ORIENTED_EDGE('',*,*,#211,.F.);
#286=ORIENTED_EDGE('',*,*,#224,.T.);
#287=ORIENTED_EDGE('',*,*,#225,.F.);
#288=ORIENTED_EDGE('',*,*,#224,.F.);
#289=ORIENTED_EDGE('',*,*,#210,.F.);
#290=ORIENTED_EDGE('',*,*,#226,.T.);
#291=ORIENTED_EDGE('',*,*,#227,.F.);
#292=ORIENTED_EDGE('',*,*,#226,.F.);
#293=ORIENTED_EDGE('',*,*,#209,.F.);
#294=ORIENTED_EDGE('',*,*,#221,.T.);
#295=ORIENTED_EDGE('',*,*,#228,.F.);
#296=ORIENTED_EDGE('',*,*,#229,.F.);
#297=ORIENTED_EDGE('',*,*,#204,.F.);
#298=ORIENTED_EDGE('',*,*,#230,.T.);
#299=ORIENTED_EDGE('',*,*,#231,.F.);
#300=ORIENTED_EDGE('',*,*,#230,.F.);
#301=ORIENTED_EDGE('',*,*,#207,.F.);
#302=ORIENTED_EDGE('',*,*,#232,.T.);
#303=ORIENTED_EDGE('',*,*,#233,.F.);
#304=ORIENTED_EDGE('',*,*,#232,.F.);
#305=ORIENTED_EDGE('',*,*,#206,.F.);
#306=ORIENTED_EDGE('',*,*,#234,.T.);
#307=ORIENTED_EDGE('',*,*,#235,.F.);
#308=ORIENTED_EDGE('',*,*,#234,.F.);
#309=ORIENTED_EDGE('',*,*,#205,.F.);
#310=ORIENTED_EDGE('',*,*,#229,.T.);
#311=ORIENTED_EDGE('',*,*,#236,.F.);
#312=ORIENTED_EDGE('',*,*,#237,.F.);
#313=ORIENTED_EDGE('',*,*,#200,.F.);
#314=ORIENTED_EDGE('',*,*,#238,.T.);
#315=ORIENTED_EDGE('',*,*,#239,.F.);
#316=ORIENTED_EDGE('',*,*,#238,.F.);
#317=ORIENTED_EDGE('',*,*,#203,.F.);
#318=ORIENTED_EDGE('',*,*,#240,.T.);
#319=ORIENTED_EDGE('',*,*,#241,.F.);
#320=ORIENTED_EDGE('',*,*,#240,.F.);
#321=ORIENTED_EDGE('',*,*,#202,.F.);
#322=ORIENTED_EDGE('',*,*,#242,.T.);
#323=ORIENTED_EDGE('',*,*,#243,.F.);
#324=ORIENTED_EDGE('',*,*,#242,.F.);
#325=ORIENTED_EDGE('',*,*,#201,.F.);
#326=ORIENTED_EDGE('',*,*,#237,.T.);
#327=ORIENTED_EDGE('',*,*,#199,.F.);
#328=ORIENTED_EDGE('',*,*,#244,.T.);
#329=ORIENTED_EDGE('',*,*,#245,.F.);
#330=ORIENTED_EDGE('',*,*,#244,.F.);
#331=ORIENTED_EDGE('',*,*,#213,.F.);
#332=ORIENTED_EDGE('',*,*,#219,.F.);
#333=ORIENTED_EDGE('',*,*,#217,.F.);
#334=ORIENTED_EDGE('',*,*,#215,.F.);
#335=ORIENTED_EDGE('',*,*,#220,.T.);
#336=ORIENTED_EDGE('',*,*,#223,.T.);
#337=ORIENTED_EDGE('',*,*,#225,.T.);
#338=ORIENTED_EDGE('',*,*,#227,.T.);
#339=ORIENTED_EDGE('',*,*,#228,.T.);
#340=ORIENTED_EDGE('',*,*,#231,.T.);
#341=ORIENTED_EDGE('',*,*,#233,.T.);
#342=ORIENTED_EDGE('',*,*,#235,.T.);
#343=ORIENTED_EDGE('',*,*,#236,.T.);
#344=ORIENTED_EDGE('',*,*,#239,.T.);
#345=ORIENTED_EDGE('',*,*,#241,.T.);
#346=ORIENTED_EDGE('',*,*,#243,.T.);
#347=ORIENTED_EDGE('',*,*,#245,.T.);
#348=PLANE('',#407);
#349=PLANE('',#417);
#350=PLANE('',#418);
#351=PLANE('',#419);
#352=PLANE('',#420);
#353=PLANE('',#431);
#354=PLANE('',#434);
#355=PLANE('',#437);
#356=PLANE('',#440);
#357=PLANE('',#443);
#358=STYLED_ITEM('',(#677),#365);
#359=STYLED_ITEM('',(#677),#367);
#360=STYLED_ITEM('',(#677),#371);
#361=STYLED_ITEM('',(#677),#372);
#362=STYLED_ITEM('',(#677),#373);
#363=STYLED_ITEM('',(#677),#383);
#364=STYLED_ITEM('',(#677),#13);
#365=ADVANCED_FACE('',(#49,#23,#24,#25,#26),#348,.F.);
#366=ADVANCED_FACE('',(#50),#349,.T.);
#367=ADVANCED_FACE('',(#51),#350,.T.);
#368=ADVANCED_FACE('',(#52),#351,.T.);
#369=ADVANCED_FACE('',(#53),#352,.T.);
#370=ADVANCED_FACE('',(#54),#14,.F.);
#371=ADVANCED_FACE('',(#55),#15,.T.);
#372=ADVANCED_FACE('',(#56),#16,.F.);
#373=ADVANCED_FACE('',(#57),#17,.F.);
#374=ADVANCED_FACE('',(#58),#18,.F.);
#375=ADVANCED_FACE('',(#59),#353,.F.);
#376=ADVANCED_FACE('',(#60),#19,.F.);
#377=ADVANCED_FACE('',(#61),#354,.F.);
#378=ADVANCED_FACE('',(#62),#20,.F.);
#379=ADVANCED_FACE('',(#63),#355,.F.);
#380=ADVANCED_FACE('',(#64),#21,.F.);
#381=ADVANCED_FACE('',(#65),#356,.F.);
#382=ADVANCED_FACE('',(#66),#22,.F.);
#383=ADVANCED_FACE('',(#67,#27,#28,#29,#30),#357,.T.);
#384=CLOSED_SHELL('',(#365,#366,#367,#368,#369,#370,#371,#372,#373,#374,
#375,#376,#377,#378,#379,#380,#381,#382,#383));
#385=DERIVED_UNIT_ELEMENT(#388,1.);
#386=DERIVED_UNIT_ELEMENT(#663,-3.);
#387=DIMENSIONAL_EXPONENTS(0.,1.,0.,0.,0.,0.,0.);
#388=(
CONVERSION_BASED_UNIT('gram',#390)
MASS_UNIT()
NAMED_UNIT(#387)
);
#389=(
MASS_UNIT()
NAMED_UNIT(*)
SI_UNIT(.KILO.,.GRAM.)
);
#390=MASS_MEASURE_WITH_UNIT(MASS_MEASURE(0.001),#389);
#391=DERIVED_UNIT((#385,#386));
#392=MEASURE_REPRESENTATION_ITEM('density measure',
POSITIVE_RATIO_MEASURE(7.872),#391);
#393=PROPERTY_DEFINITION_REPRESENTATION(#398,#395);
#394=PROPERTY_DEFINITION_REPRESENTATION(#399,#396);
#395=REPRESENTATION('material name',(#397),#660);
#396=REPRESENTATION('density',(#392),#660);
#397=DESCRIPTIVE_REPRESENTATION_ITEM(
'\X2\042104420430043B044C\X0\ AISI 1008 91, \X2\0433043E0440044F04470435043A043004420430043D0430044F\X0\',
'\X2\042104420430043B044C\X0\ AISI 1008 91, \X2\0433043E0440044F04470435043A043004420430043D0430044F\X0\');
#398=PROPERTY_DEFINITION('material property','material name',#670);
#399=PROPERTY_DEFINITION('material property','density of part',#670);
#400=DATE_TIME_ROLE('creation_date');
#401=APPLIED_DATE_AND_TIME_ASSIGNMENT(#402,#400,(#670));
#402=DATE_AND_TIME(#403,#404);
#403=CALENDAR_DATE(2019,7,2);
#404=LOCAL_TIME(0,0,0.,#405);
#405=COORDINATED_UNIVERSAL_TIME_OFFSET(0,0,.BEHIND.);
#406=AXIS2_PLACEMENT_3D('',#553,#444,#445);
#407=AXIS2_PLACEMENT_3D('',#554,#446,#447);
#408=AXIS2_PLACEMENT_3D('',#564,#452,#453);
#409=AXIS2_PLACEMENT_3D('',#567,#454,#455);
#410=AXIS2_PLACEMENT_3D('',#571,#457,#458);
#411=AXIS2_PLACEMENT_3D('',#575,#460,#461);
#412=AXIS2_PLACEMENT_3D('',#579,#463,#464);
#413=AXIS2_PLACEMENT_3D('',#583,#466,#467);
#414=AXIS2_PLACEMENT_3D('',#585,#468,#469);
#415=AXIS2_PLACEMENT_3D('',#587,#470,#471);
#416=AXIS2_PLACEMENT_3D('',#588,#472,#473);
#417=AXIS2_PLACEMENT_3D('',#589,#474,#475);
#418=AXIS2_PLACEMENT_3D('',#595,#479,#480);
#419=AXIS2_PLACEMENT_3D('',#599,#483,#484);
#420=AXIS2_PLACEMENT_3D('',#603,#487,#488);
#421=AXIS2_PLACEMENT_3D('',#605,#490,#491);
#422=AXIS2_PLACEMENT_3D('',#608,#492,#493);
#423=AXIS2_PLACEMENT_3D('',#611,#496,#497);
#424=AXIS2_PLACEMENT_3D('',#613,#498,#499);
#425=AXIS2_PLACEMENT_3D('',#615,#501,#502);
#426=AXIS2_PLACEMENT_3D('',#617,#503,#504);
#427=AXIS2_PLACEMENT_3D('',#619,#506,#507);
#428=AXIS2_PLACEMENT_3D('',#620,#508,#509);
#429=AXIS2_PLACEMENT_3D('',#621,#510,#511);
#430=AXIS2_PLACEMENT_3D('',#624,#512,#513);
#431=AXIS2_PLACEMENT_3D('',#627,#516,#517);
#432=AXIS2_PLACEMENT_3D('',#631,#520,#521);
#433=AXIS2_PLACEMENT_3D('',#633,#522,#523);
#434=AXIS2_PLACEMENT_3D('',#635,#525,#526);
#435=AXIS2_PLACEMENT_3D('',#637,#528,#529);
#436=AXIS2_PLACEMENT_3D('',#640,#530,#531);
#437=AXIS2_PLACEMENT_3D('',#643,#534,#535);
#438=AXIS2_PLACEMENT_3D('',#647,#538,#539);
#439=AXIS2_PLACEMENT_3D('',#649,#540,#541);
#440=AXIS2_PLACEMENT_3D('',#651,#543,#544);
#441=AXIS2_PLACEMENT_3D('',#653,#546,#547);
#442=AXIS2_PLACEMENT_3D('',#656,#549,#550);
#443=AXIS2_PLACEMENT_3D('',#657,#551,#552);
#444=DIRECTION('axis',(0.,0.,1.));
#445=DIRECTION('refdir',(1.,0.,0.));
#446=DIRECTION('center_axis',(0.,1.,0.));
#447=DIRECTION('ref_axis',(0.,0.,1.));
#448=DIRECTION('',(8.33970347136268E-17,0.,1.));
#449=DIRECTION('',(-1.,0.,1.66794069427254E-16));
#450=DIRECTION('',(-8.33970347136268E-17,0.,-1.));
#451=DIRECTION('',(1.,0.,-1.66794069427254E-16));
#452=DIRECTION('center_axis',(0.,1.,0.));
#453=DIRECTION('ref_axis',(1.,0.,0.));
#454=DIRECTION('center_axis',(0.,1.,0.));
#455=DIRECTION('ref_axis',(0.,0.,-1.));
#456=DIRECTION('',(1.,0.,0.));
#457=DIRECTION('center_axis',(0.,1.,0.));
#458=DIRECTION('ref_axis',(0.,0.,1.));
#459=DIRECTION('',(-1.,0.,0.));
#460=DIRECTION('center_axis',(0.,1.,0.));
#461=DIRECTION('ref_axis',(0.,0.,-1.));
#462=DIRECTION('',(-1.,0.,-2.53765262771465E-15));
#463=DIRECTION('center_axis',(0.,1.,0.));
#464=DIRECTION('ref_axis',(0.,0.,1.));
#465=DIRECTION('',(1.,0.,2.53765262771465E-15));
#466=DIRECTION('center_axis',(0.,1.,0.));
#467=DIRECTION('ref_axis',(-1.,0.,0.));
#468=DIRECTION('center_axis',(0.,1.,0.));
#469=DIRECTION('ref_axis',(1.,0.,1.06688098462477E-16));
#470=DIRECTION('center_axis',(0.,1.,0.));
#471=DIRECTION('ref_axis',(4.09928501400057E-15,0.,-1.));
#472=DIRECTION('center_axis',(0.,-1.,0.));
#473=DIRECTION('ref_axis',(-1.,0.,1.15723572599365E-16));
#474=DIRECTION('center_axis',(-1.,0.,8.33970347136268E-17));
#475=DIRECTION('ref_axis',(8.33970347136268E-17,0.,1.));
#476=DIRECTION('',(0.,1.,0.));
#477=DIRECTION('',(-8.33970347136268E-17,0.,-1.));
#478=DIRECTION('',(0.,1.,0.));
#479=DIRECTION('center_axis',(-1.66794069427254E-16,0.,-1.));
#480=DIRECTION('ref_axis',(-1.,0.,1.66794069427254E-16));
#481=DIRECTION('',(1.,0.,-1.66794069427254E-16));
#482=DIRECTION('',(0.,1.,0.));
#483=DIRECTION('center_axis',(1.,0.,-8.33970347136268E-17));
#484=DIRECTION('ref_axis',(-8.33970347136268E-17,0.,-1.));
#485=DIRECTION('',(8.33970347136268E-17,0.,1.));
#486=DIRECTION('',(0.,1.,0.));
#487=DIRECTION('center_axis',(1.66794069427254E-16,0.,1.));
#488=DIRECTION('ref_axis',(1.,0.,-1.66794069427254E-16));
#489=DIRECTION('',(-1.,0.,1.66794069427254E-16));
#490=DIRECTION('center_axis',(0.,1.,0.));
#491=DIRECTION('ref_axis',(-1.,0.,0.));
#492=DIRECTION('center_axis',(0.,-1.,0.));
#493=DIRECTION('ref_axis',(-1.,0.,0.));
#494=DIRECTION('',(0.,1.,0.));
#495=DIRECTION('',(0.,1.,0.));
#496=DIRECTION('center_axis',(0.,1.,0.));
#497=DIRECTION('ref_axis',(-1.,0.,1.15723572599365E-16));
#498=DIRECTION('center_axis',(0.,1.,0.));
#499=DIRECTION('ref_axis',(-1.,0.,1.15723572599365E-16));
#500=DIRECTION('',(0.,1.,0.));
#501=DIRECTION('center_axis',(0.,1.,0.));
#502=DIRECTION('ref_axis',(4.09928501400057E-15,0.,-1.));
#503=DIRECTION('center_axis',(0.,-1.,0.));
#504=DIRECTION('ref_axis',(4.09928501400057E-15,0.,-1.));
#505=DIRECTION('',(0.,1.,0.));
#506=DIRECTION('center_axis',(0.,1.,0.));
#507=DIRECTION('ref_axis',(1.,0.,1.06688098462477E-16));
#508=DIRECTION('center_axis',(0.,-1.,0.));
#509=DIRECTION('ref_axis',(1.,0.,1.06688098462477E-16));
#510=DIRECTION('center_axis',(0.,1.,0.));
#511=DIRECTION('ref_axis',(0.,0.,-1.));
#512=DIRECTION('center_axis',(0.,-1.,0.));
#513=DIRECTION('ref_axis',(0.,0.,-1.));
#514=DIRECTION('',(0.,1.,0.));
#515=DIRECTION('',(0.,1.,0.));
#516=DIRECTION('center_axis',(-2.53765262771465E-15,0.,1.));
#517=DIRECTION('ref_axis',(1.,0.,2.53765262771465E-15));
#518=DIRECTION('',(-1.,0.,-2.53765262771465E-15));
#519=DIRECTION('',(0.,1.,0.));
#520=DIRECTION('center_axis',(0.,1.,0.));
#521=DIRECTION('ref_axis',(0.,0.,1.));
#522=DIRECTION('center_axis',(0.,-1.,0.));
#523=DIRECTION('ref_axis',(0.,0.,1.));
#524=DIRECTION('',(0.,1.,0.));
#525=DIRECTION('center_axis',(2.53765262771465E-15,0.,-1.));
#526=DIRECTION('ref_axis',(-1.,0.,-2.53765262771465E-15));
#527=DIRECTION('',(1.,0.,2.53765262771465E-15));
#528=DIRECTION('center_axis',(0.,1.,0.));
#529=DIRECTION('ref_axis',(0.,0.,-1.));
#530=DIRECTION('center_axis',(0.,-1.,0.));
#531=DIRECTION('ref_axis',(0.,0.,-1.));
#532=DIRECTION('',(0.,1.,0.));
#533=DIRECTION('',(0.,1.,0.));
#534=DIRECTION('center_axis',(0.,0.,-1.));
#535=DIRECTION('ref_axis',(-1.,0.,0.));
#536=DIRECTION('',(1.,0.,0.));
#537=DIRECTION('',(0.,1.,0.));
#538=DIRECTION('center_axis',(0.,1.,0.));
#539=DIRECTION('ref_axis',(0.,0.,1.));
#540=DIRECTION('center_axis',(0.,-1.,0.));
#541=DIRECTION('ref_axis',(0.,0.,1.));
#542=DIRECTION('',(0.,1.,0.));
#543=DIRECTION('center_axis',(0.,0.,1.));
#544=DIRECTION('ref_axis',(1.,0.,0.));
#545=DIRECTION('',(-1.,0.,0.));
#546=DIRECTION('center_axis',(0.,1.,0.));
#547=DIRECTION('ref_axis',(1.,0.,0.));
#548=DIRECTION('',(0.,1.,0.));
#549=DIRECTION('center_axis',(0.,-1.,0.));
#550=DIRECTION('ref_axis',(1.,0.,0.));
#551=DIRECTION('center_axis',(0.,1.,0.));
#552=DIRECTION('ref_axis',(0.,0.,1.));
#553=CARTESIAN_POINT('',(0.,0.,0.));
#554=CARTESIAN_POINT('Origin',(1.33226762955019E-14,0.,2.01858731750028E-15));
#555=CARTESIAN_POINT('',(-106.5,0.,-106.5));
#556=CARTESIAN_POINT('',(-106.5,0.,106.5));
#557=CARTESIAN_POINT('',(-106.5,0.,-106.5));
#558=CARTESIAN_POINT('',(106.5,0.,-106.5));
#559=CARTESIAN_POINT('',(106.5,0.,-106.5));
#560=CARTESIAN_POINT('',(106.5,0.,106.5));
#561=CARTESIAN_POINT('',(106.5,0.,106.5));
#562=CARTESIAN_POINT('',(-106.5,0.,106.5));
#563=CARTESIAN_POINT('',(-86.5,0.,80.));
#564=CARTESIAN_POINT('Origin',(-80.,0.,80.));
#565=CARTESIAN_POINT('',(3.00000000000004,0.,73.5));
#566=CARTESIAN_POINT('',(3.00000000000004,0.,86.5));
#567=CARTESIAN_POINT('Origin',(3.00000000000004,0.,80.));
#568=CARTESIAN_POINT('',(10.,0.,86.5));
#569=CARTESIAN_POINT('',(5.00000000000003,0.,86.5));
#570=CARTESIAN_POINT('',(10.,0.,73.5));
#571=CARTESIAN_POINT('Origin',(10.,0.,80.));
#572=CARTESIAN_POINT('',(1.50000000000003,0.,73.5));
#573=CARTESIAN_POINT('',(47.,0.,86.5));
#574=CARTESIAN_POINT('',(47.,0.,73.5));
#575=CARTESIAN_POINT('Origin',(47.,0.,80.));
#576=CARTESIAN_POINT('',(40.,0.,73.5));
#577=CARTESIAN_POINT('',(19.9999999999999,0.,73.5));
#578=CARTESIAN_POINT('',(40.,0.,86.5));
#579=CARTESIAN_POINT('Origin',(40.,0.,80.));
#580=CARTESIAN_POINT('',(23.4999999999999,0.,86.5));
#581=CARTESIAN_POINT('',(73.5,0.,80.));
#582=CARTESIAN_POINT('',(86.5,0.,80.));
#583=CARTESIAN_POINT('Origin',(80.,0.,80.));
#584=CARTESIAN_POINT('',(-80.,0.,-86.5));
#585=CARTESIAN_POINT('Origin',(-80.,0.,80.));
#586=CARTESIAN_POINT('',(-80.,0.,-73.5));
#587=CARTESIAN_POINT('Origin',(-80.,0.,-80.));
#588=CARTESIAN_POINT('Origin',(-80.,0.,80.));
#589=CARTESIAN_POINT('Origin',(-106.5,0.,106.5));
#590=CARTESIAN_POINT('',(-106.5,6.,106.5));
#591=CARTESIAN_POINT('',(-106.5,0.,106.5));
#592=CARTESIAN_POINT('',(-106.5,6.,-106.5));
#593=CARTESIAN_POINT('',(-106.5,6.,-106.5));
#594=CARTESIAN_POINT('',(-106.5,0.,-106.5));
#595=CARTESIAN_POINT('Origin',(-106.5,0.,-106.5));
#596=CARTESIAN_POINT('',(106.5,6.,-106.5));
#597=CARTESIAN_POINT('',(106.5,6.,-106.5));
#598=CARTESIAN_POINT('',(106.5,0.,-106.5));
#599=CARTESIAN_POINT('Origin',(106.5,0.,-106.5));
#600=CARTESIAN_POINT('',(106.5,6.,106.5));
#601=CARTESIAN_POINT('',(106.5,6.,106.5));
#602=CARTESIAN_POINT('',(106.5,0.,106.5));
#603=CARTESIAN_POINT('Origin',(106.5,0.,106.5));
#604=CARTESIAN_POINT('',(-106.5,6.,106.5));
#605=CARTESIAN_POINT('Origin',(80.,0.,80.));
#606=CARTESIAN_POINT('',(86.5,6.,80.));
#607=CARTESIAN_POINT('',(73.5,6.,80.));
#608=CARTESIAN_POINT('Origin',(80.,6.,80.));
#609=CARTESIAN_POINT('',(86.5,0.,80.));
#610=CARTESIAN_POINT('',(73.5,0.,80.));
#611=CARTESIAN_POINT('Origin',(-80.,0.,80.));
#612=CARTESIAN_POINT('',(-80.,6.,-73.5));
#613=CARTESIAN_POINT('Origin',(-80.,6.,80.));
#614=CARTESIAN_POINT('',(-80.,0.,-73.5));
#615=CARTESIAN_POINT('Origin',(-80.,0.,-80.));
#616=CARTESIAN_POINT('',(-80.,6.,-86.5));
#617=CARTESIAN_POINT('Origin',(-80.,6.,-80.));
#618=CARTESIAN_POINT('',(-80.,0.,-86.5));
#619=CARTESIAN_POINT('Origin',(-80.,0.,80.));
#620=CARTESIAN_POINT('Origin',(-80.,6.,80.));
#621=CARTESIAN_POINT('Origin',(47.,0.,80.));
#622=CARTESIAN_POINT('',(47.,6.,73.5));
#623=CARTESIAN_POINT('',(47.,6.,86.5));
#624=CARTESIAN_POINT('Origin',(47.,6.,80.));
#625=CARTESIAN_POINT('',(47.,0.,73.5));
#626=CARTESIAN_POINT('',(47.,0.,86.5));
#627=CARTESIAN_POINT('Origin',(47.,0.,86.5));
#628=CARTESIAN_POINT('',(40.,6.,86.5));
#629=CARTESIAN_POINT('',(23.4999999999999,6.,86.5));
#630=CARTESIAN_POINT('',(40.,0.,86.5));
#631=CARTESIAN_POINT('Origin',(40.,0.,80.));
#632=CARTESIAN_POINT('',(40.,6.,73.5));
#633=CARTESIAN_POINT('Origin',(40.,6.,80.));
#634=CARTESIAN_POINT('',(40.,0.,73.5));
#635=CARTESIAN_POINT('Origin',(40.,0.,73.5));
#636=CARTESIAN_POINT('',(19.9999999999999,6.,73.5));
#637=CARTESIAN_POINT('Origin',(3.00000000000004,0.,80.));
#638=CARTESIAN_POINT('',(3.00000000000004,6.,86.5));
#639=CARTESIAN_POINT('',(3.00000000000004,6.,73.5));
#640=CARTESIAN_POINT('Origin',(3.00000000000004,6.,80.));
#641=CARTESIAN_POINT('',(3.00000000000004,0.,86.5));
#642=CARTESIAN_POINT('',(3.00000000000004,0.,73.5));
#643=CARTESIAN_POINT('Origin',(3.00000000000004,0.,73.5));
#644=CARTESIAN_POINT('',(10.,6.,73.5));
#645=CARTESIAN_POINT('',(1.50000000000003,6.,73.5));
#646=CARTESIAN_POINT('',(10.,0.,73.5));
#647=CARTESIAN_POINT('Origin',(10.,0.,80.));
#648=CARTESIAN_POINT('',(10.,6.,86.5));
#649=CARTESIAN_POINT('Origin',(10.,6.,80.));
#650=CARTESIAN_POINT('',(10.,0.,86.5));
#651=CARTESIAN_POINT('Origin',(10.,0.,86.5));
#652=CARTESIAN_POINT('',(5.00000000000003,6.,86.5));
#653=CARTESIAN_POINT('Origin',(-80.,0.,80.));
#654=CARTESIAN_POINT('',(-86.5,6.,80.));
#655=CARTESIAN_POINT('',(-86.5,0.,80.));
#656=CARTESIAN_POINT('Origin',(-80.,6.,80.));
#657=CARTESIAN_POINT('Origin',(1.33226762955019E-14,6.,-2.01858731750028E-15));
#658=UNCERTAINTY_MEASURE_WITH_UNIT(LENGTH_MEASURE(0.01),#662,
'DISTANCE_ACCURACY_VALUE',
'Maximum model space distance between geometric entities at asserted c
onnectivities');
#659=UNCERTAINTY_MEASURE_WITH_UNIT(LENGTH_MEASURE(0.01),#662,
'DISTANCE_ACCURACY_VALUE',
'Maximum model space distance between geometric entities at asserted c
onnectivities');
#660=(
GEOMETRIC_REPRESENTATION_CONTEXT(3)
GLOBAL_UNCERTAINTY_ASSIGNED_CONTEXT((#658))
GLOBAL_UNIT_ASSIGNED_CONTEXT((#662,#664,#665))
REPRESENTATION_CONTEXT('','3D')
);
#661=(
GEOMETRIC_REPRESENTATION_CONTEXT(3)
GLOBAL_UNCERTAINTY_ASSIGNED_CONTEXT((#659))
GLOBAL_UNIT_ASSIGNED_CONTEXT((#662,#664,#665))
REPRESENTATION_CONTEXT('','3D')
);
#662=(
LENGTH_UNIT()
NAMED_UNIT(*)
SI_UNIT(.MILLI.,.METRE.)
);
#663=(
LENGTH_UNIT()
NAMED_UNIT(*)
SI_UNIT(.CENTI.,.METRE.)
);
#664=(
NAMED_UNIT(*)
PLANE_ANGLE_UNIT()
SI_UNIT($,.RADIAN.)
);
#665=(
NAMED_UNIT(*)
SI_UNIT($,.STERADIAN.)
SOLID_ANGLE_UNIT()
);
#666=SHAPE_DEFINITION_REPRESENTATION(#667,#668);
#667=PRODUCT_DEFINITION_SHAPE('',$,#670);
#668=SHAPE_REPRESENTATION('',(#406),#660);
#669=PRODUCT_DEFINITION_CONTEXT('part definition',#674,'design');
#670=PRODUCT_DEFINITION(
'\X2\041F043B0430044104420438043D0430\X0\ \X2\043F043E0432043E0440043E0442043D0430044F\X0\ 
\X2\0443043D043804320435044004410430043B044C043D0430044F\X0\, PPU',
'PPU',#671,#669);
#671=PRODUCT_DEFINITION_FORMATION('',$,#676);
#672=PRODUCT_RELATED_PRODUCT_CATEGORY('PPU','PPU',(#676));
#673=APPLICATION_PROTOCOL_DEFINITION('international standard',
'automotive_design',2009,#674);
#674=APPLICATION_CONTEXT(
'Core Data for Automotive Mechanical Design Process');
#675=PRODUCT_CONTEXT('part definition',#674,'mechanical');
#676=PRODUCT(
'\X2\041F043B0430044104420438043D0430\X0\ \X2\043F043E0432043E0440043E0442043D0430044F\X0\ 
\X2\0443043D043804320435044004410430043B044C043D0430044F\X0\, PPU',
'PPU',$,(#675));
#677=PRESENTATION_STYLE_ASSIGNMENT((#678));
#678=SURFACE_STYLE_USAGE(.BOTH.,#681);
#679=SURFACE_STYLE_RENDERING_WITH_PROPERTIES($,#685,(#680));
#680=SURFACE_STYLE_TRANSPARENT(0.);
#681=SURFACE_SIDE_STYLE('',(#682,#679));
#682=SURFACE_STYLE_FILL_AREA(#683);
#683=FILL_AREA_STYLE('',(#684));
#684=FILL_AREA_STYLE_COLOUR('',#685);
#685=COLOUR_RGB('',0.745098039215686,0.737254901960784,0.729411764705882);
ENDSEC;
END-ISO-10303-21;
