ISO-10303-21;
HEADER;
/* Generated by software containing ST-Developer
 * from STEP Tools, Inc. (www.steptools.com) 
 */

FILE_DESCRIPTION(
/* description */ (''),
/* implementation_level */ '2;1');

FILE_NAME(
/* name */ 'RPKBO.ipt.stp',
/* time_stamp */ '2023-05-15T11:24:37+03:00',
/* author */ ('\X2\042004420438044904350432\X0\ \X2\0410\X0\.\X2\041E\X0\.'),

/* organization */ (''),
/* preprocessor_version */ 'ST-DEVELOPER v19.2',
/* originating_system */ 'Autodesk Inventor 2023',
/* authorisation */ '');

FILE_SCHEMA (('AUTOMOTIVE_DESIGN { 1 0 10303 214 3 1 1 }'));
ENDSEC;

DATA;
#10=MECHANICAL_DESIGN_GEOMETRIC_PRESENTATION_REPRESENTATION('',(#340,#341,
#342,#343,#344,#345,#346,#347,#348,#349,#350,#351,#352,#353,#354,#355,#356,
#357,#358),#606);
#11=SHAPE_REPRESENTATION_RELATIONSHIP('SRR','None',#613,#12);
#12=ADVANCED_BREP_SHAPE_REPRESENTATION('',(#13),#605);
#13=MANIFOLD_SOLID_BREP('\X2\04220432043504400434043E0435\X0\ \X2\04420435043B043E\X0\1',
#377);
#14=FACE_OUTER_BOUND('',#32,.T.);
#15=FACE_OUTER_BOUND('',#33,.T.);
#16=FACE_OUTER_BOUND('',#34,.T.);
#17=FACE_OUTER_BOUND('',#35,.T.);
#18=FACE_OUTER_BOUND('',#36,.T.);
#19=FACE_OUTER_BOUND('',#37,.T.);
#20=FACE_OUTER_BOUND('',#38,.T.);
#21=FACE_OUTER_BOUND('',#39,.T.);
#22=FACE_OUTER_BOUND('',#40,.T.);
#23=FACE_OUTER_BOUND('',#41,.T.);
#24=FACE_OUTER_BOUND('',#42,.T.);
#25=FACE_OUTER_BOUND('',#43,.T.);
#26=FACE_OUTER_BOUND('',#44,.T.);
#27=FACE_OUTER_BOUND('',#45,.T.);
#28=FACE_OUTER_BOUND('',#46,.T.);
#29=FACE_OUTER_BOUND('',#47,.T.);
#30=FACE_OUTER_BOUND('',#48,.T.);
#31=FACE_OUTER_BOUND('',#49,.T.);
#32=EDGE_LOOP('',(#226,#227,#228,#229,#230,#231,#232,#233));
#33=EDGE_LOOP('',(#234,#235,#236,#237,#238,#239));
#34=EDGE_LOOP('',(#240,#241,#242,#243,#244,#245));
#35=EDGE_LOOP('',(#246,#247,#248,#249,#250,#251,#252,#253));
#36=EDGE_LOOP('',(#254,#255,#256,#257,#258,#259));
#37=EDGE_LOOP('',(#260,#261,#262,#263,#264,#265));
#38=EDGE_LOOP('',(#266,#267,#268,#269,#270,#271));
#39=EDGE_LOOP('',(#272,#273,#274,#275));
#40=EDGE_LOOP('',(#276,#277,#278,#279,#280,#281));
#41=EDGE_LOOP('',(#282,#283,#284,#285));
#42=EDGE_LOOP('',(#286,#287,#288,#289));
#43=EDGE_LOOP('',(#290,#291,#292,#293,#294,#295));
#44=EDGE_LOOP('',(#296,#297,#298,#299));
#45=EDGE_LOOP('',(#300,#301,#302,#303));
#46=EDGE_LOOP('',(#304,#305,#306,#307));
#47=EDGE_LOOP('',(#308,#309,#310,#311));
#48=EDGE_LOOP('',(#312,#313,#314,#315,#316,#317));
#49=EDGE_LOOP('',(#318,#319,#320,#321));
#50=LINE('',#508,#98);
#51=LINE('',#510,#99);
#52=LINE('',#512,#100);
#53=LINE('',#514,#101);
#54=LINE('',#516,#102);
#55=LINE('',#518,#103);
#56=LINE('',#520,#104);
#57=LINE('',#521,#105);
#58=LINE('',#524,#106);
#59=LINE('',#526,#107);
#60=LINE('',#528,#108);
#61=LINE('',#530,#109);
#62=LINE('',#531,#110);
#63=LINE('',#534,#111);
#64=LINE('',#536,#112);
#65=LINE('',#538,#113);
#66=LINE('',#539,#114);
#67=LINE('',#543,#115);
#68=LINE('',#545,#116);
#69=LINE('',#547,#117);
#70=LINE('',#549,#118);
#71=LINE('',#551,#119);
#72=LINE('',#552,#120);
#73=LINE('',#553,#121);
#74=LINE('',#556,#122);
#75=LINE('',#558,#123);
#76=LINE('',#560,#124);
#77=LINE('',#562,#125);
#78=LINE('',#563,#126);
#79=LINE('',#566,#127);
#80=LINE('',#568,#128);
#81=LINE('',#570,#129);
#82=LINE('',#572,#130);
#83=LINE('',#573,#131);
#84=LINE('',#575,#132);
#85=LINE('',#576,#133);
#86=LINE('',#579,#134);
#87=LINE('',#581,#135);
#88=LINE('',#582,#136);
#89=LINE('',#585,#137);
#90=LINE('',#586,#138);
#91=LINE('',#587,#139);
#92=LINE('',#589,#140);
#93=LINE('',#591,#141);
#94=LINE('',#592,#142);
#95=LINE('',#596,#143);
#96=LINE('',#597,#144);
#97=LINE('',#599,#145);
#98=VECTOR('',#422,10.);
#99=VECTOR('',#423,10.);
#100=VECTOR('',#424,10.);
#101=VECTOR('',#425,10.);
#102=VECTOR('',#426,10.);
#103=VECTOR('',#427,10.);
#104=VECTOR('',#428,10.);
#105=VECTOR('',#429,10.);
#106=VECTOR('',#432,10.);
#107=VECTOR('',#433,10.);
#108=VECTOR('',#434,10.);
#109=VECTOR('',#435,10.);
#110=VECTOR('',#436,10.);
#111=VECTOR('',#439,10.);
#112=VECTOR('',#440,10.);
#113=VECTOR('',#441,10.);
#114=VECTOR('',#442,10.);
#115=VECTOR('',#445,10.);
#116=VECTOR('',#446,10.);
#117=VECTOR('',#447,10.);
#118=VECTOR('',#448,10.);
#119=VECTOR('',#449,10.);
#120=VECTOR('',#450,10.);
#121=VECTOR('',#451,10.);
#122=VECTOR('',#454,10.);
#123=VECTOR('',#455,10.);
#124=VECTOR('',#456,10.);
#125=VECTOR('',#457,10.);
#126=VECTOR('',#458,10.);
#127=VECTOR('',#461,10.);
#128=VECTOR('',#462,10.);
#129=VECTOR('',#463,10.);
#130=VECTOR('',#464,10.);
#131=VECTOR('',#465,10.);
#132=VECTOR('',#468,10.);
#133=VECTOR('',#469,10.);
#134=VECTOR('',#472,10.);
#135=VECTOR('',#473,10.);
#136=VECTOR('',#474,10.);
#137=VECTOR('',#477,10.);
#138=VECTOR('',#478,10.);
#139=VECTOR('',#479,10.);
#140=VECTOR('',#482,10.);
#141=VECTOR('',#485,10.);
#142=VECTOR('',#486,10.);
#143=VECTOR('',#493,10.);
#144=VECTOR('',#494,10.);
#145=VECTOR('',#497,10.);
#146=VERTEX_POINT('',#506);
#147=VERTEX_POINT('',#507);
#148=VERTEX_POINT('',#509);
#149=VERTEX_POINT('',#511);
#150=VERTEX_POINT('',#513);
#151=VERTEX_POINT('',#515);
#152=VERTEX_POINT('',#517);
#153=VERTEX_POINT('',#519);
#154=VERTEX_POINT('',#523);
#155=VERTEX_POINT('',#525);
#156=VERTEX_POINT('',#527);
#157=VERTEX_POINT('',#529);
#158=VERTEX_POINT('',#533);
#159=VERTEX_POINT('',#535);
#160=VERTEX_POINT('',#537);
#161=VERTEX_POINT('',#541);
#162=VERTEX_POINT('',#542);
#163=VERTEX_POINT('',#544);
#164=VERTEX_POINT('',#546);
#165=VERTEX_POINT('',#548);
#166=VERTEX_POINT('',#550);
#167=VERTEX_POINT('',#555);
#168=VERTEX_POINT('',#557);
#169=VERTEX_POINT('',#559);
#170=VERTEX_POINT('',#561);
#171=VERTEX_POINT('',#565);
#172=VERTEX_POINT('',#567);
#173=VERTEX_POINT('',#569);
#174=VERTEX_POINT('',#571);
#175=VERTEX_POINT('',#578);
#176=VERTEX_POINT('',#580);
#177=VERTEX_POINT('',#584);
#178=EDGE_CURVE('',#146,#147,#50,.T.);
#179=EDGE_CURVE('',#147,#148,#51,.T.);
#180=EDGE_CURVE('',#149,#148,#52,.T.);
#181=EDGE_CURVE('',#150,#149,#53,.T.);
#182=EDGE_CURVE('',#150,#151,#54,.T.);
#183=EDGE_CURVE('',#152,#151,#55,.T.);
#184=EDGE_CURVE('',#152,#153,#56,.T.);
#185=EDGE_CURVE('',#153,#146,#57,.T.);
#186=EDGE_CURVE('',#154,#148,#58,.T.);
#187=EDGE_CURVE('',#155,#154,#59,.T.);
#188=EDGE_CURVE('',#156,#155,#60,.T.);
#189=EDGE_CURVE('',#157,#156,#61,.T.);
#190=EDGE_CURVE('',#157,#149,#62,.T.);
#191=EDGE_CURVE('',#147,#158,#63,.T.);
#192=EDGE_CURVE('',#158,#159,#64,.T.);
#193=EDGE_CURVE('',#159,#160,#65,.T.);
#194=EDGE_CURVE('',#154,#160,#66,.T.);
#195=EDGE_CURVE('',#161,#162,#67,.T.);
#196=EDGE_CURVE('',#163,#161,#68,.T.);
#197=EDGE_CURVE('',#164,#163,#69,.T.);
#198=EDGE_CURVE('',#165,#164,#70,.T.);
#199=EDGE_CURVE('',#166,#165,#71,.T.);
#200=EDGE_CURVE('',#157,#166,#72,.T.);
#201=EDGE_CURVE('',#162,#156,#73,.T.);
#202=EDGE_CURVE('',#167,#164,#74,.T.);
#203=EDGE_CURVE('',#168,#167,#75,.T.);
#204=EDGE_CURVE('',#169,#168,#76,.T.);
#205=EDGE_CURVE('',#170,#169,#77,.T.);
#206=EDGE_CURVE('',#170,#165,#78,.T.);
#207=EDGE_CURVE('',#171,#152,#79,.T.);
#208=EDGE_CURVE('',#172,#151,#80,.T.);
#209=EDGE_CURVE('',#173,#172,#81,.T.);
#210=EDGE_CURVE('',#174,#173,#82,.T.);
#211=EDGE_CURVE('',#174,#171,#83,.T.);
#212=EDGE_CURVE('',#166,#150,#84,.T.);
#213=EDGE_CURVE('',#170,#172,#85,.T.);
#214=EDGE_CURVE('',#158,#175,#86,.T.);
#215=EDGE_CURVE('',#175,#176,#87,.T.);
#216=EDGE_CURVE('',#159,#176,#88,.T.);
#217=EDGE_CURVE('',#177,#155,#89,.T.);
#218=EDGE_CURVE('',#176,#177,#90,.T.);
#219=EDGE_CURVE('',#175,#162,#91,.T.);
#220=EDGE_CURVE('',#160,#177,#92,.T.);
#221=EDGE_CURVE('',#146,#161,#93,.T.);
#222=EDGE_CURVE('',#153,#163,#94,.T.);
#223=EDGE_CURVE('',#171,#167,#95,.T.);
#224=EDGE_CURVE('',#174,#168,#96,.T.);
#225=EDGE_CURVE('',#173,#169,#97,.T.);
#226=ORIENTED_EDGE('',*,*,#178,.T.);
#227=ORIENTED_EDGE('',*,*,#179,.T.);
#228=ORIENTED_EDGE('',*,*,#180,.F.);
#229=ORIENTED_EDGE('',*,*,#181,.F.);
#230=ORIENTED_EDGE('',*,*,#182,.T.);
#231=ORIENTED_EDGE('',*,*,#183,.F.);
#232=ORIENTED_EDGE('',*,*,#184,.T.);
#233=ORIENTED_EDGE('',*,*,#185,.T.);
#234=ORIENTED_EDGE('',*,*,#180,.T.);
#235=ORIENTED_EDGE('',*,*,#186,.F.);
#236=ORIENTED_EDGE('',*,*,#187,.F.);
#237=ORIENTED_EDGE('',*,*,#188,.F.);
#238=ORIENTED_EDGE('',*,*,#189,.F.);
#239=ORIENTED_EDGE('',*,*,#190,.T.);
#240=ORIENTED_EDGE('',*,*,#191,.T.);
#241=ORIENTED_EDGE('',*,*,#192,.T.);
#242=ORIENTED_EDGE('',*,*,#193,.T.);
#243=ORIENTED_EDGE('',*,*,#194,.F.);
#244=ORIENTED_EDGE('',*,*,#186,.T.);
#245=ORIENTED_EDGE('',*,*,#179,.F.);
#246=ORIENTED_EDGE('',*,*,#195,.F.);
#247=ORIENTED_EDGE('',*,*,#196,.F.);
#248=ORIENTED_EDGE('',*,*,#197,.F.);
#249=ORIENTED_EDGE('',*,*,#198,.F.);
#250=ORIENTED_EDGE('',*,*,#199,.F.);
#251=ORIENTED_EDGE('',*,*,#200,.F.);
#252=ORIENTED_EDGE('',*,*,#189,.T.);
#253=ORIENTED_EDGE('',*,*,#201,.F.);
#254=ORIENTED_EDGE('',*,*,#198,.T.);
#255=ORIENTED_EDGE('',*,*,#202,.F.);
#256=ORIENTED_EDGE('',*,*,#203,.F.);
#257=ORIENTED_EDGE('',*,*,#204,.F.);
#258=ORIENTED_EDGE('',*,*,#205,.F.);
#259=ORIENTED_EDGE('',*,*,#206,.T.);
#260=ORIENTED_EDGE('',*,*,#207,.T.);
#261=ORIENTED_EDGE('',*,*,#183,.T.);
#262=ORIENTED_EDGE('',*,*,#208,.F.);
#263=ORIENTED_EDGE('',*,*,#209,.F.);
#264=ORIENTED_EDGE('',*,*,#210,.F.);
#265=ORIENTED_EDGE('',*,*,#211,.T.);
#266=ORIENTED_EDGE('',*,*,#208,.T.);
#267=ORIENTED_EDGE('',*,*,#182,.F.);
#268=ORIENTED_EDGE('',*,*,#212,.F.);
#269=ORIENTED_EDGE('',*,*,#199,.T.);
#270=ORIENTED_EDGE('',*,*,#206,.F.);
#271=ORIENTED_EDGE('',*,*,#213,.T.);
#272=ORIENTED_EDGE('',*,*,#214,.T.);
#273=ORIENTED_EDGE('',*,*,#215,.T.);
#274=ORIENTED_EDGE('',*,*,#216,.F.);
#275=ORIENTED_EDGE('',*,*,#192,.F.);
#276=ORIENTED_EDGE('',*,*,#188,.T.);
#277=ORIENTED_EDGE('',*,*,#217,.F.);
#278=ORIENTED_EDGE('',*,*,#218,.F.);
#279=ORIENTED_EDGE('',*,*,#215,.F.);
#280=ORIENTED_EDGE('',*,*,#219,.T.);
#281=ORIENTED_EDGE('',*,*,#201,.T.);
#282=ORIENTED_EDGE('',*,*,#187,.T.);
#283=ORIENTED_EDGE('',*,*,#194,.T.);
#284=ORIENTED_EDGE('',*,*,#220,.T.);
#285=ORIENTED_EDGE('',*,*,#217,.T.);
#286=ORIENTED_EDGE('',*,*,#221,.F.);
#287=ORIENTED_EDGE('',*,*,#185,.F.);
#288=ORIENTED_EDGE('',*,*,#222,.T.);
#289=ORIENTED_EDGE('',*,*,#196,.T.);
#290=ORIENTED_EDGE('',*,*,#178,.F.);
#291=ORIENTED_EDGE('',*,*,#221,.T.);
#292=ORIENTED_EDGE('',*,*,#195,.T.);
#293=ORIENTED_EDGE('',*,*,#219,.F.);
#294=ORIENTED_EDGE('',*,*,#214,.F.);
#295=ORIENTED_EDGE('',*,*,#191,.F.);
#296=ORIENTED_EDGE('',*,*,#190,.F.);
#297=ORIENTED_EDGE('',*,*,#200,.T.);
#298=ORIENTED_EDGE('',*,*,#212,.T.);
#299=ORIENTED_EDGE('',*,*,#181,.T.);
#300=ORIENTED_EDGE('',*,*,#223,.F.);
#301=ORIENTED_EDGE('',*,*,#211,.F.);
#302=ORIENTED_EDGE('',*,*,#224,.T.);
#303=ORIENTED_EDGE('',*,*,#203,.T.);
#304=ORIENTED_EDGE('',*,*,#213,.F.);
#305=ORIENTED_EDGE('',*,*,#205,.T.);
#306=ORIENTED_EDGE('',*,*,#225,.F.);
#307=ORIENTED_EDGE('',*,*,#209,.T.);
#308=ORIENTED_EDGE('',*,*,#204,.T.);
#309=ORIENTED_EDGE('',*,*,#224,.F.);
#310=ORIENTED_EDGE('',*,*,#210,.T.);
#311=ORIENTED_EDGE('',*,*,#225,.T.);
#312=ORIENTED_EDGE('',*,*,#207,.F.);
#313=ORIENTED_EDGE('',*,*,#223,.T.);
#314=ORIENTED_EDGE('',*,*,#202,.T.);
#315=ORIENTED_EDGE('',*,*,#197,.T.);
#316=ORIENTED_EDGE('',*,*,#222,.F.);
#317=ORIENTED_EDGE('',*,*,#184,.F.);
#318=ORIENTED_EDGE('',*,*,#218,.T.);
#319=ORIENTED_EDGE('',*,*,#220,.F.);
#320=ORIENTED_EDGE('',*,*,#193,.F.);
#321=ORIENTED_EDGE('',*,*,#216,.T.);
#322=PLANE('',#400);
#323=PLANE('',#401);
#324=PLANE('',#402);
#325=PLANE('',#403);
#326=PLANE('',#404);
#327=PLANE('',#405);
#328=PLANE('',#406);
#329=PLANE('',#407);
#330=PLANE('',#408);
#331=PLANE('',#409);
#332=PLANE('',#410);
#333=PLANE('',#411);
#334=PLANE('',#412);
#335=PLANE('',#413);
#336=PLANE('',#414);
#337=PLANE('',#415);
#338=PLANE('',#416);
#339=PLANE('',#417);
#340=STYLED_ITEM('',(#623),#359);
#341=STYLED_ITEM('',(#623),#360);
#342=STYLED_ITEM('',(#623),#361);
#343=STYLED_ITEM('',(#623),#362);
#344=STYLED_ITEM('',(#623),#363);
#345=STYLED_ITEM('',(#623),#364);
#346=STYLED_ITEM('',(#623),#365);
#347=STYLED_ITEM('',(#623),#366);
#348=STYLED_ITEM('',(#623),#367);
#349=STYLED_ITEM('',(#623),#368);
#350=STYLED_ITEM('',(#623),#369);
#351=STYLED_ITEM('',(#623),#370);
#352=STYLED_ITEM('',(#623),#371);
#353=STYLED_ITEM('',(#623),#372);
#354=STYLED_ITEM('',(#623),#373);
#355=STYLED_ITEM('',(#623),#374);
#356=STYLED_ITEM('',(#623),#375);
#357=STYLED_ITEM('',(#623),#376);
#358=STYLED_ITEM('',(#622),#13);
#359=ADVANCED_FACE('',(#14),#322,.T.);
#360=ADVANCED_FACE('',(#15),#323,.T.);
#361=ADVANCED_FACE('',(#16),#324,.T.);
#362=ADVANCED_FACE('',(#17),#325,.F.);
#363=ADVANCED_FACE('',(#18),#326,.F.);
#364=ADVANCED_FACE('',(#19),#327,.T.);
#365=ADVANCED_FACE('',(#20),#328,.T.);
#366=ADVANCED_FACE('',(#21),#329,.T.);
#367=ADVANCED_FACE('',(#22),#330,.F.);
#368=ADVANCED_FACE('',(#23),#331,.T.);
#369=ADVANCED_FACE('',(#24),#332,.T.);
#370=ADVANCED_FACE('',(#25),#333,.T.);
#371=ADVANCED_FACE('',(#26),#334,.T.);
#372=ADVANCED_FACE('',(#27),#335,.T.);
#373=ADVANCED_FACE('',(#28),#336,.T.);
#374=ADVANCED_FACE('',(#29),#337,.T.);
#375=ADVANCED_FACE('',(#30),#338,.T.);
#376=ADVANCED_FACE('',(#31),#339,.T.);
#377=CLOSED_SHELL('',(#359,#360,#361,#362,#363,#364,#365,#366,#367,#368,
#369,#370,#371,#372,#373,#374,#375,#376));
#378=DERIVED_UNIT_ELEMENT(#381,1.);
#379=DERIVED_UNIT_ELEMENT(#608,-3.);
#380=DIMENSIONAL_EXPONENTS(0.,1.,0.,0.,0.,0.,0.);
#381=(
CONVERSION_BASED_UNIT('gram',#383)
MASS_UNIT()
NAMED_UNIT(#380)
);
#382=(
MASS_UNIT()
NAMED_UNIT(*)
SI_UNIT(.KILO.,.GRAM.)
);
#383=MASS_MEASURE_WITH_UNIT(MASS_MEASURE(0.001),#382);
#384=DERIVED_UNIT((#378,#379));
#385=MEASURE_REPRESENTATION_ITEM('density measure',
POSITIVE_RATIO_MEASURE(7.872),#384);
#386=PROPERTY_DEFINITION_REPRESENTATION(#391,#388);
#387=PROPERTY_DEFINITION_REPRESENTATION(#392,#389);
#388=REPRESENTATION('material name',(#390),#605);
#389=REPRESENTATION('density',(#385),#605);
#390=DESCRIPTIVE_REPRESENTATION_ITEM(
'\X2\042104420430043B044C\X0\ AISI 1008 91, \X2\0433043E0440044F04470435043A043004420430043D0430044F\X0\',
'\X2\042104420430043B044C\X0\ AISI 1008 91, \X2\0433043E0440044F04470435043A043004420430043D0430044F\X0\');
#391=PROPERTY_DEFINITION('material property','material name',#615);
#392=PROPERTY_DEFINITION('material property','density of part',#615);
#393=DATE_TIME_ROLE('creation_date');
#394=APPLIED_DATE_AND_TIME_ASSIGNMENT(#395,#393,(#615));
#395=DATE_AND_TIME(#396,#397);
#396=CALENDAR_DATE(2019,23,7);
#397=LOCAL_TIME(0,0,0.,#398);
#398=COORDINATED_UNIVERSAL_TIME_OFFSET(0,0,.BEHIND.);
#399=AXIS2_PLACEMENT_3D('',#504,#418,#419);
#400=AXIS2_PLACEMENT_3D('',#505,#420,#421);
#401=AXIS2_PLACEMENT_3D('',#522,#430,#431);
#402=AXIS2_PLACEMENT_3D('',#532,#437,#438);
#403=AXIS2_PLACEMENT_3D('',#540,#443,#444);
#404=AXIS2_PLACEMENT_3D('',#554,#452,#453);
#405=AXIS2_PLACEMENT_3D('',#564,#459,#460);
#406=AXIS2_PLACEMENT_3D('',#574,#466,#467);
#407=AXIS2_PLACEMENT_3D('',#577,#470,#471);
#408=AXIS2_PLACEMENT_3D('',#583,#475,#476);
#409=AXIS2_PLACEMENT_3D('',#588,#480,#481);
#410=AXIS2_PLACEMENT_3D('',#590,#483,#484);
#411=AXIS2_PLACEMENT_3D('',#593,#487,#488);
#412=AXIS2_PLACEMENT_3D('',#594,#489,#490);
#413=AXIS2_PLACEMENT_3D('',#595,#491,#492);
#414=AXIS2_PLACEMENT_3D('',#598,#495,#496);
#415=AXIS2_PLACEMENT_3D('',#600,#498,#499);
#416=AXIS2_PLACEMENT_3D('',#601,#500,#501);
#417=AXIS2_PLACEMENT_3D('',#602,#502,#503);
#418=DIRECTION('axis',(0.,0.,1.));
#419=DIRECTION('refdir',(1.,0.,0.));
#420=DIRECTION('center_axis',(-1.,3.34132655227336E-17,1.38777878078145E-16));
#421=DIRECTION('ref_axis',(1.38777878078145E-16,0.,1.));
#422=DIRECTION('',(1.38777878078145E-16,0.,1.));
#423=DIRECTION('',(3.34132655227336E-17,1.,4.35450154187067E-17));
#424=DIRECTION('',(1.38777878078145E-16,0.,1.));
#425=DIRECTION('',(0.,0.,1.));
#426=DIRECTION('',(-1.38777878078145E-16,0.,-1.));
#427=DIRECTION('',(3.34132655227336E-17,1.,-4.35450154187067E-17));
#428=DIRECTION('',(1.38777878078145E-16,0.,1.));
#429=DIRECTION('',(0.,0.,1.));
#430=DIRECTION('center_axis',(0.,1.,0.));
#431=DIRECTION('ref_axis',(0.,0.,1.));
#432=DIRECTION('',(0.965925826289068,0.,0.25881904510252));
#433=DIRECTION('',(0.25881904510252,0.,-0.965925826289068));
#434=DIRECTION('',(-0.965925826289068,0.,-0.25881904510252));
#435=DIRECTION('',(1.38777878078145E-16,0.,1.));
#436=DIRECTION('',(-1.,0.,0.));
#437=DIRECTION('center_axis',(0.25881904510252,3.34132655227336E-17,-0.965925826289068));
#438=DIRECTION('ref_axis',(-0.965925826289068,0.,-0.25881904510252));
#439=DIRECTION('',(-0.965925826289068,0.,-0.25881904510252));
#440=DIRECTION('',(-0.965925826289068,0.,-0.25881904510252));
#441=DIRECTION('',(0.,1.,0.));
#442=DIRECTION('',(-0.965925826289068,0.,-0.25881904510252));
#443=DIRECTION('center_axis',(-1.,-4.87192990120355E-17,1.38777878078145E-16));
#444=DIRECTION('ref_axis',(1.38777878078145E-16,0.,1.));
#445=DIRECTION('',(1.38777878078145E-16,0.,1.));
#446=DIRECTION('',(0.,0.,1.));
#447=DIRECTION('',(1.38777878078145E-16,0.,1.));
#448=DIRECTION('',(4.87192990120355E-17,-1.,-6.34922266195221E-17));
#449=DIRECTION('',(-1.38777878078145E-16,0.,-1.));
#450=DIRECTION('',(0.,0.,-1.));
#451=DIRECTION('',(-4.87192990120355E-17,1.,-6.34922266195221E-17));
#452=DIRECTION('center_axis',(0.258819045102521,-4.87192990120355E-17,0.965925826289068));
#453=DIRECTION('ref_axis',(0.965925826289068,0.,-0.258819045102521));
#454=DIRECTION('',(0.965925826289068,0.,-0.258819045102521));
#455=DIRECTION('',(0.965925826289068,0.,-0.25881904510252));
#456=DIRECTION('',(0.,-1.,0.));
#457=DIRECTION('',(-0.965925826289068,0.,0.25881904510252));
#458=DIRECTION('',(0.965925826289068,0.,-0.258819045102521));
#459=DIRECTION('center_axis',(0.258819045102521,3.34132655227336E-17,0.965925826289068));
#460=DIRECTION('ref_axis',(0.965925826289068,0.,-0.258819045102521));
#461=DIRECTION('',(0.965925826289068,0.,-0.258819045102521));
#462=DIRECTION('',(0.965925826289068,0.,-0.258819045102521));
#463=DIRECTION('',(0.965925826289068,0.,-0.25881904510252));
#464=DIRECTION('',(0.,1.,0.));
#465=DIRECTION('',(0.965925826289068,0.,-0.25881904510252));
#466=DIRECTION('center_axis',(0.,1.,0.));
#467=DIRECTION('ref_axis',(0.,0.,1.));
#468=DIRECTION('',(-1.,0.,0.));
#469=DIRECTION('',(0.25881904510252,0.,0.965925826289068));
#470=DIRECTION('center_axis',(0.,-1.,0.));
#471=DIRECTION('ref_axis',(0.,0.,-1.));
#472=DIRECTION('',(-0.25881904510252,0.,0.965925826289068));
#473=DIRECTION('',(-0.965925826289069,0.,-0.25881904510252));
#474=DIRECTION('',(-0.258819045102519,0.,0.965925826289069));
#475=DIRECTION('center_axis',(0.25881904510252,-4.87192990120355E-17,-0.965925826289069));
#476=DIRECTION('ref_axis',(-0.965925826289069,0.,-0.25881904510252));
#477=DIRECTION('',(0.965925826289069,0.,0.25881904510252));
#478=DIRECTION('',(0.,1.,0.));
#479=DIRECTION('',(0.965925826289068,0.,0.25881904510252));
#480=DIRECTION('center_axis',(0.,1.,0.));
#481=DIRECTION('ref_axis',(0.,0.,1.));
#482=DIRECTION('',(-0.258819045102519,0.,0.965925826289069));
#483=DIRECTION('center_axis',(0.,-1.,0.));
#484=DIRECTION('ref_axis',(0.,0.,-1.));
#485=DIRECTION('',(1.,0.,0.));
#486=DIRECTION('',(1.,0.,0.));
#487=DIRECTION('center_axis',(0.,-1.,0.));
#488=DIRECTION('ref_axis',(0.,0.,-1.));
#489=DIRECTION('center_axis',(0.,1.,0.));
#490=DIRECTION('ref_axis',(0.,0.,1.));
#491=DIRECTION('center_axis',(0.,-1.,0.));
#492=DIRECTION('ref_axis',(0.,0.,-1.));
#493=DIRECTION('',(-0.25881904510252,0.,-0.965925826289068));
#494=DIRECTION('',(-0.258819045102522,0.,-0.965925826289068));
#495=DIRECTION('center_axis',(0.,1.,0.));
#496=DIRECTION('ref_axis',(0.,0.,1.));
#497=DIRECTION('',(-0.258819045102522,0.,-0.965925826289068));
#498=DIRECTION('center_axis',(-0.965925826289068,0.,0.258819045102522));
#499=DIRECTION('ref_axis',(0.258819045102522,0.,0.965925826289068));
#500=DIRECTION('center_axis',(0.,-1.,0.));
#501=DIRECTION('ref_axis',(0.,0.,-1.));
#502=DIRECTION('center_axis',(-0.965925826289069,0.,-0.258819045102519));
#503=DIRECTION('ref_axis',(-0.258819045102519,0.,0.965925826289069));
#504=CARTESIAN_POINT('',(0.,0.,0.));
#505=CARTESIAN_POINT('Origin',(-0.749999999999993,15.,-23.5));
#506=CARTESIAN_POINT('',(-0.750000000000011,0.,-2.93225708889276));
#507=CARTESIAN_POINT('',(-0.74999999999999,0.,-0.97741902963092));
#508=CARTESIAN_POINT('',(-0.749999999999995,0.,-33.7838714555537));
#509=CARTESIAN_POINT('',(-0.74999999999999,30.,-0.977419029630919));
#510=CARTESIAN_POINT('',(-0.74999999999999,15.,-0.977419029630919));
#511=CARTESIAN_POINT('',(-0.750000000000011,30.,-2.93225708889276));
#512=CARTESIAN_POINT('',(-0.749999999999994,30.,-33.7838714555537));
#513=CARTESIAN_POINT('',(-0.750000000000011,30.,-44.0677429111073));
#514=CARTESIAN_POINT('',(-0.750000000000011,30.,-66.0064714100214));
#515=CARTESIAN_POINT('',(-0.749999999999995,30.,-46.0225809703691));
#516=CARTESIAN_POINT('',(-0.749999999999994,30.,-33.7838714555537));
#517=CARTESIAN_POINT('',(-0.749999999999997,0.,-46.0225809703691));
#518=CARTESIAN_POINT('',(-0.749999999999996,15.,-46.0225809703691));
#519=CARTESIAN_POINT('',(-0.750000000000011,0.,-44.0677429111073));
#520=CARTESIAN_POINT('',(-0.749999999999995,0.,-33.7838714555537));
#521=CARTESIAN_POINT('',(-0.750000000000011,0.,-66.0064714100214));
#522=CARTESIAN_POINT('Origin',(0.750000000000003,30.,-44.0677429111073));
#523=CARTESIAN_POINT('',(-2.63822856765375,30.,-1.48336834945914));
#524=CARTESIAN_POINT('',(5.46457544282685,30.,0.687771441576817));
#525=CARTESIAN_POINT('',(-3.02645713530755,30.,-0.0344796100255218));
#526=CARTESIAN_POINT('',(-2.72363885253761,30.,-1.16461282678375));
#527=CARTESIAN_POINT('',(0.750000000000022,30.,0.977419029630911));
#528=CARTESIAN_POINT('',(5.07634687517307,30.,2.13666018101044));
#529=CARTESIAN_POINT('',(0.750000000000011,30.,-2.93225708889274));
#530=CARTESIAN_POINT('',(0.750000000000017,30.,-33.7838714555537));
#531=CARTESIAN_POINT('',(-0.420000000000016,30.,-2.93225708889272));
#532=CARTESIAN_POINT('Origin',(21.0522128031845,15.,4.86446628419382));
#533=CARTESIAN_POINT('',(-2.63822856765375,0.,-1.48336834945914));
#534=CARTESIAN_POINT('',(4.76481591640768,1.11022302462516E-15,0.500271441576814));
#535=CARTESIAN_POINT('',(-20.0058857161731,0.,-6.1370180568255));
#536=CARTESIAN_POINT('',(62.110311322542,0.,15.8659506252131));
#537=CARTESIAN_POINT('',(-20.0058857161731,30.,-6.1370180568255));
#538=CARTESIAN_POINT('',(-20.0058857161731,0.,-6.1370180568255));
#539=CARTESIAN_POINT('',(62.110311322542,30.,15.8659506252131));
#540=CARTESIAN_POINT('Origin',(0.75000000000002,15.,-23.5));
#541=CARTESIAN_POINT('',(0.75000000000002,0.,-2.93225708889273));
#542=CARTESIAN_POINT('',(0.750000000000023,0.,0.977419029630908));
#543=CARTESIAN_POINT('',(0.750000000000019,0.,-33.7838714555537));
#544=CARTESIAN_POINT('',(0.750000000000011,0.,-44.0677429111073));
#545=CARTESIAN_POINT('',(0.75000000000002,0.,1.0261496546304));
#546=CARTESIAN_POINT('',(0.750000000000017,0.,-47.9774190296309));
#547=CARTESIAN_POINT('',(0.750000000000019,0.,-33.7838714555537));
#548=CARTESIAN_POINT('',(0.750000000000015,30.,-47.9774190296309));
#549=CARTESIAN_POINT('',(0.750000000000016,15.,-47.9774190296309));
#550=CARTESIAN_POINT('',(0.750000000000002,30.,-44.0677429111073));
#551=CARTESIAN_POINT('',(0.750000000000017,30.,-33.7838714555537));
#552=CARTESIAN_POINT('',(0.750000000000011,30.,-66.0064714100214));
#553=CARTESIAN_POINT('',(0.750000000000023,15.,0.977419029630912));
#554=CARTESIAN_POINT('Origin',(20.6639842355307,15.,-53.3133550236275));
#555=CARTESIAN_POINT('',(-3.02645713530756,0.,-46.9655203899745));
#556=CARTESIAN_POINT('',(9.51852307653071,0.,-50.326937706801));
#557=CARTESIAN_POINT('',(-20.3941142838269,0.,-42.3118706826082));
#558=CARTESIAN_POINT('',(44.3544256063689,0.,-59.6611896572804));
#559=CARTESIAN_POINT('',(-20.3941142838269,30.,-42.3118706826082));
#560=CARTESIAN_POINT('',(-20.3941142838269,0.,-42.3118706826081));
#561=CARTESIAN_POINT('',(-3.02645713530757,30.,-46.9655203899745));
#562=CARTESIAN_POINT('',(-20.3941142838269,30.,-42.3118706826081));
#563=CARTESIAN_POINT('',(10.2182826029499,30.,-50.514437706801));
#564=CARTESIAN_POINT('Origin',(21.0522128031845,15.,-51.8644662841939));
#565=CARTESIAN_POINT('',(-2.63822856765379,0.,-45.5166316505409));
#566=CARTESIAN_POINT('',(9.9067516441845,1.11022302462516E-15,-48.8780489673674));
#567=CARTESIAN_POINT('',(-2.63822856765379,30.,-45.5166316505409));
#568=CARTESIAN_POINT('',(10.6065111706037,30.,-49.0655489673674));
#569=CARTESIAN_POINT('',(-20.0058857161731,30.,-40.8629819431745));
#570=CARTESIAN_POINT('',(-20.0058857161731,30.,-40.8629819431745));
#571=CARTESIAN_POINT('',(-20.0058857161731,0.,-40.8629819431745));
#572=CARTESIAN_POINT('',(-20.0058857161731,0.,-40.8629819431745));
#573=CARTESIAN_POINT('',(-20.0058857161731,0.,-40.8629819431745));
#574=CARTESIAN_POINT('Origin',(0.750000000000003,30.,-44.0677429111073));
#575=CARTESIAN_POINT('',(-0.420000000000016,30.,-44.0677429111073));
#576=CARTESIAN_POINT('',(-2.72363885253762,30.,-45.8353871732163));
#577=CARTESIAN_POINT('Origin',(-0.750000000000009,0.,-44.0677429111073));
#578=CARTESIAN_POINT('',(-3.02645713530756,0.,-0.0344796100255174));
#579=CARTESIAN_POINT('',(-2.72363885253761,2.22044604925031E-15,-1.16461282678375));
#580=CARTESIAN_POINT('',(-20.3941142838269,0.,-4.68812931739187));
#581=CARTESIAN_POINT('',(-3.02645713530755,0.,-0.0344796100255129));
#582=CARTESIAN_POINT('',(-20.0058857161731,0.,-6.1370180568255));
#583=CARTESIAN_POINT('Origin',(20.6639842355307,15.,6.31335502362744));
#584=CARTESIAN_POINT('',(-20.3941142838269,30.,-4.68812931739187));
#585=CARTESIAN_POINT('',(61.7220827548883,30.,17.3148393646468));
#586=CARTESIAN_POINT('',(-20.3941142838269,0.,-4.68812931739189));
#587=CARTESIAN_POINT('',(4.37658734875391,0.,1.94916018101043));
#588=CARTESIAN_POINT('Origin',(0.750000000000003,30.,-44.0677429111073));
#589=CARTESIAN_POINT('',(-20.0058857161731,30.,-6.1370180568255));
#590=CARTESIAN_POINT('Origin',(-0.750000000000009,0.,-44.0677429111073));
#591=CARTESIAN_POINT('',(-0.419999999999989,2.22044604925031E-15,-2.93225708889273));
#592=CARTESIAN_POINT('',(-0.419999999999998,2.22044604925031E-15,-44.0677429111073));
#593=CARTESIAN_POINT('Origin',(-0.750000000000009,0.,-44.0677429111073));
#594=CARTESIAN_POINT('Origin',(0.750000000000003,30.,-44.0677429111073));
#595=CARTESIAN_POINT('Origin',(-0.750000000000009,0.,-44.0677429111073));
#596=CARTESIAN_POINT('',(-2.72363885253762,2.22044604925031E-15,-45.8353871732163));
#597=CARTESIAN_POINT('',(-20.0058857161731,0.,-40.8629819431745));
#598=CARTESIAN_POINT('Origin',(0.750000000000003,30.,-44.0677429111073));
#599=CARTESIAN_POINT('',(-20.0058857161731,30.,-40.8629819431745));
#600=CARTESIAN_POINT('Origin',(-20.0058857161731,30.,-40.8629819431745));
#601=CARTESIAN_POINT('Origin',(-0.750000000000009,0.,-44.0677429111073));
#602=CARTESIAN_POINT('Origin',(-20.0058857161731,0.,-6.1370180568255));
#603=UNCERTAINTY_MEASURE_WITH_UNIT(LENGTH_MEASURE(0.01),#607,
'DISTANCE_ACCURACY_VALUE',
'Maximum model space distance between geometric entities at asserted c
onnectivities');
#604=UNCERTAINTY_MEASURE_WITH_UNIT(LENGTH_MEASURE(0.01),#607,
'DISTANCE_ACCURACY_VALUE',
'Maximum model space distance between geometric entities at asserted c
onnectivities');
#605=(
GEOMETRIC_REPRESENTATION_CONTEXT(3)
GLOBAL_UNCERTAINTY_ASSIGNED_CONTEXT((#603))
GLOBAL_UNIT_ASSIGNED_CONTEXT((#607,#609,#610))
REPRESENTATION_CONTEXT('','3D')
);
#606=(
GEOMETRIC_REPRESENTATION_CONTEXT(3)
GLOBAL_UNCERTAINTY_ASSIGNED_CONTEXT((#604))
GLOBAL_UNIT_ASSIGNED_CONTEXT((#607,#609,#610))
REPRESENTATION_CONTEXT('','3D')
);
#607=(
LENGTH_UNIT()
NAMED_UNIT(*)
SI_UNIT(.MILLI.,.METRE.)
);
#608=(
LENGTH_UNIT()
NAMED_UNIT(*)
SI_UNIT(.CENTI.,.METRE.)
);
#609=(
NAMED_UNIT(*)
PLANE_ANGLE_UNIT()
SI_UNIT($,.RADIAN.)
);
#610=(
NAMED_UNIT(*)
SI_UNIT($,.STERADIAN.)
SOLID_ANGLE_UNIT()
);
#611=SHAPE_DEFINITION_REPRESENTATION(#612,#613);
#612=PRODUCT_DEFINITION_SHAPE('',$,#615);
#613=SHAPE_REPRESENTATION('',(#399),#605);
#614=PRODUCT_DEFINITION_CONTEXT('part definition',#619,'design');
#615=PRODUCT_DEFINITION('RPKBO','RPKBO',#616,#614);
#616=PRODUCT_DEFINITION_FORMATION('',$,#621);
#617=PRODUCT_RELATED_PRODUCT_CATEGORY('RPKBO','RPKBO',(#621));
#618=APPLICATION_PROTOCOL_DEFINITION('international standard',
'automotive_design',2009,#619);
#619=APPLICATION_CONTEXT(
'Core Data for Automotive Mechanical Design Process');
#620=PRODUCT_CONTEXT('part definition',#619,'mechanical');
#621=PRODUCT('RPKBO','RPKBO',$,(#620));
#622=PRESENTATION_STYLE_ASSIGNMENT((#624));
#623=PRESENTATION_STYLE_ASSIGNMENT((#625));
#624=SURFACE_STYLE_USAGE(.BOTH.,#630);
#625=SURFACE_STYLE_USAGE(.BOTH.,#631);
#626=SURFACE_STYLE_RENDERING_WITH_PROPERTIES($,#638,(#628));
#627=SURFACE_STYLE_RENDERING_WITH_PROPERTIES($,#639,(#629));
#628=SURFACE_STYLE_TRANSPARENT(0.);
#629=SURFACE_STYLE_TRANSPARENT(0.);
#630=SURFACE_SIDE_STYLE('',(#632,#626));
#631=SURFACE_SIDE_STYLE('',(#633,#627));
#632=SURFACE_STYLE_FILL_AREA(#634);
#633=SURFACE_STYLE_FILL_AREA(#635);
#634=FILL_AREA_STYLE('',(#636));
#635=FILL_AREA_STYLE('',(#637));
#636=FILL_AREA_STYLE_COLOUR('',#638);
#637=FILL_AREA_STYLE_COLOUR('',#639);
#638=COLOUR_RGB('',0.87843137254902,0.874509803921569,0.858823529411765);
#639=COLOUR_RGB('',0.745098039215686,0.737254901960784,0.729411764705882);
ENDSEC;
END-ISO-10303-21;
