ISO-10303-21;
HEADER;
/* Generated by software containing ST-Developer
 * from STEP Tools, Inc. (www.steptools.com) 
 */

FILE_DESCRIPTION(
/* description */ (''),
/* implementation_level */ '2;1');

FILE_NAME(
/* name */ '308223 USG135x2.ipt.stp',
/* time_stamp */ '2023-05-16T17:46:29+03:00',
/* author */ ('\X2\042004420438044904350432\X0\ \X2\0410\X0\. \X2\041E\X0\.'),

/* organization */ (''),
/* preprocessor_version */ 'ST-DEVELOPER v19.2',
/* originating_system */ 'Autodesk Inventor 2023',
/* authorisation */ '');

FILE_SCHEMA (('AUTOMOTIVE_DESIGN { 1 0 10303 214 3 1 1 }'));
ENDSEC;

DATA;
#10=MECHANICAL_DESIGN_GEOMETRIC_PRESENTATION_REPRESENTATION('',(#252,#253,
#254,#255,#256,#257,#258,#259,#260,#261,#262,#263,#264,#265,#266,#267),
#481);
#11=SHAPE_REPRESENTATION_RELATIONSHIP('SRR','None',#488,#12);
#12=ADVANCED_BREP_SHAPE_REPRESENTATION('',(#13),#480);
#13=MANIFOLD_SOLID_BREP('\X2\04220432043504400434043E0435\X0\ \X2\04420435043B043E\X0\1',
#284);
#14=FACE_BOUND('',#51,.T.);
#15=FACE_BOUND('',#54,.T.);
#16=FACE_BOUND('',#57,.T.);
#17=FACE_BOUND('',#65,.T.);
#18=PLANE('',#313);
#19=PLANE('',#317);
#20=PLANE('',#318);
#21=PLANE('',#320);
#22=PLANE('',#321);
#23=PLANE('',#322);
#24=PLANE('',#323);
#25=PLANE('',#324);
#26=PLANE('',#325);
#27=PLANE('',#326);
#28=PLANE('',#328);
#29=PLANE('',#330);
#30=FACE_OUTER_BOUND('',#46,.T.);
#31=FACE_OUTER_BOUND('',#47,.T.);
#32=FACE_OUTER_BOUND('',#48,.T.);
#33=FACE_OUTER_BOUND('',#49,.T.);
#34=FACE_OUTER_BOUND('',#50,.T.);
#35=FACE_OUTER_BOUND('',#52,.T.);
#36=FACE_OUTER_BOUND('',#53,.T.);
#37=FACE_OUTER_BOUND('',#55,.T.);
#38=FACE_OUTER_BOUND('',#56,.T.);
#39=FACE_OUTER_BOUND('',#58,.T.);
#40=FACE_OUTER_BOUND('',#59,.T.);
#41=FACE_OUTER_BOUND('',#60,.T.);
#42=FACE_OUTER_BOUND('',#61,.T.);
#43=FACE_OUTER_BOUND('',#62,.T.);
#44=FACE_OUTER_BOUND('',#63,.T.);
#45=FACE_OUTER_BOUND('',#64,.T.);
#46=EDGE_LOOP('',(#180,#181,#182,#183));
#47=EDGE_LOOP('',(#184,#185,#186,#187));
#48=EDGE_LOOP('',(#188,#189,#190,#191));
#49=EDGE_LOOP('',(#192,#193,#194,#195));
#50=EDGE_LOOP('',(#196,#197,#198,#199));
#51=EDGE_LOOP('',(#200));
#52=EDGE_LOOP('',(#201,#202,#203,#204));
#53=EDGE_LOOP('',(#205,#206,#207,#208));
#54=EDGE_LOOP('',(#209));
#55=EDGE_LOOP('',(#210,#211,#212,#213));
#56=EDGE_LOOP('',(#214,#215,#216,#217));
#57=EDGE_LOOP('',(#218));
#58=EDGE_LOOP('',(#219,#220,#221,#222));
#59=EDGE_LOOP('',(#223,#224,#225,#226));
#60=EDGE_LOOP('',(#227,#228,#229,#230));
#61=EDGE_LOOP('',(#231,#232,#233,#234));
#62=EDGE_LOOP('',(#235,#236,#237,#238));
#63=EDGE_LOOP('',(#239,#240,#241,#242));
#64=EDGE_LOOP('',(#243,#244,#245,#246));
#65=EDGE_LOOP('',(#247));
#66=LINE('',#412,#92);
#67=LINE('',#418,#93);
#68=LINE('',#423,#94);
#69=LINE('',#425,#95);
#70=LINE('',#427,#96);
#71=LINE('',#428,#97);
#72=LINE('',#431,#98);
#73=LINE('',#435,#99);
#74=LINE('',#439,#100);
#75=LINE('',#441,#101);
#76=LINE('',#442,#102);
#77=LINE('',#444,#103);
#78=LINE('',#447,#104);
#79=LINE('',#450,#105);
#80=LINE('',#452,#106);
#81=LINE('',#454,#107);
#82=LINE('',#455,#108);
#83=LINE('',#458,#109);
#84=LINE('',#459,#110);
#85=LINE('',#461,#111);
#86=LINE('',#463,#112);
#87=LINE('',#465,#113);
#88=LINE('',#466,#114);
#89=LINE('',#469,#115);
#90=LINE('',#470,#116);
#91=LINE('',#472,#117);
#92=VECTOR('',#337,6.75);
#93=VECTOR('',#344,7.);
#94=VECTOR('',#349,10.);
#95=VECTOR('',#350,10.);
#96=VECTOR('',#351,10.);
#97=VECTOR('',#352,10.);
#98=VECTOR('',#355,10.);
#99=VECTOR('',#358,10.);
#100=VECTOR('',#363,10.);
#101=VECTOR('',#364,10.);
#102=VECTOR('',#365,10.);
#103=VECTOR('',#368,10.);
#104=VECTOR('',#371,10.);
#105=VECTOR('',#374,10.);
#106=VECTOR('',#375,10.);
#107=VECTOR('',#376,10.);
#108=VECTOR('',#377,10.);
#109=VECTOR('',#380,10.);
#110=VECTOR('',#381,10.);
#111=VECTOR('',#384,10.);
#112=VECTOR('',#387,10.);
#113=VECTOR('',#388,10.);
#114=VECTOR('',#389,10.);
#115=VECTOR('',#392,10.);
#116=VECTOR('',#393,10.);
#117=VECTOR('',#396,10.);
#118=CIRCLE('',#308,6.75);
#119=CIRCLE('',#309,6.75);
#120=CIRCLE('',#311,7.);
#121=CIRCLE('',#312,7.);
#122=CIRCLE('',#315,8.);
#123=CIRCLE('',#316,8.);
#124=CIRCLE('',#319,4.);
#125=CIRCLE('',#327,4.00000000000001);
#126=VERTEX_POINT('',#409);
#127=VERTEX_POINT('',#411);
#128=VERTEX_POINT('',#415);
#129=VERTEX_POINT('',#417);
#130=VERTEX_POINT('',#421);
#131=VERTEX_POINT('',#422);
#132=VERTEX_POINT('',#424);
#133=VERTEX_POINT('',#426);
#134=VERTEX_POINT('',#430);
#135=VERTEX_POINT('',#432);
#136=VERTEX_POINT('',#434);
#137=VERTEX_POINT('',#438);
#138=VERTEX_POINT('',#440);
#139=VERTEX_POINT('',#445);
#140=VERTEX_POINT('',#449);
#141=VERTEX_POINT('',#451);
#142=VERTEX_POINT('',#453);
#143=VERTEX_POINT('',#457);
#144=VERTEX_POINT('',#464);
#145=VERTEX_POINT('',#468);
#146=EDGE_CURVE('',#126,#126,#118,.T.);
#147=EDGE_CURVE('',#126,#127,#66,.T.);
#148=EDGE_CURVE('',#127,#127,#119,.T.);
#149=EDGE_CURVE('',#128,#128,#120,.T.);
#150=EDGE_CURVE('',#128,#129,#67,.T.);
#151=EDGE_CURVE('',#129,#129,#121,.T.);
#152=EDGE_CURVE('',#130,#131,#68,.T.);
#153=EDGE_CURVE('',#131,#132,#69,.T.);
#154=EDGE_CURVE('',#133,#132,#70,.T.);
#155=EDGE_CURVE('',#130,#133,#71,.T.);
#156=EDGE_CURVE('',#134,#130,#72,.T.);
#157=EDGE_CURVE('',#135,#134,#122,.T.);
#158=EDGE_CURVE('',#135,#136,#73,.T.);
#159=EDGE_CURVE('',#136,#130,#123,.T.);
#160=EDGE_CURVE('',#131,#137,#74,.T.);
#161=EDGE_CURVE('',#138,#137,#75,.T.);
#162=EDGE_CURVE('',#132,#138,#76,.T.);
#163=EDGE_CURVE('',#137,#134,#77,.T.);
#164=EDGE_CURVE('',#137,#139,#124,.T.);
#165=EDGE_CURVE('',#139,#135,#78,.T.);
#166=EDGE_CURVE('',#140,#139,#79,.T.);
#167=EDGE_CURVE('',#141,#140,#80,.T.);
#168=EDGE_CURVE('',#142,#141,#81,.T.);
#169=EDGE_CURVE('',#139,#142,#82,.T.);
#170=EDGE_CURVE('',#134,#143,#83,.T.);
#171=EDGE_CURVE('',#143,#138,#84,.T.);
#172=EDGE_CURVE('',#133,#143,#85,.T.);
#173=EDGE_CURVE('',#136,#140,#86,.T.);
#174=EDGE_CURVE('',#144,#136,#87,.T.);
#175=EDGE_CURVE('',#144,#141,#88,.T.);
#176=EDGE_CURVE('',#145,#142,#89,.T.);
#177=EDGE_CURVE('',#145,#135,#90,.T.);
#178=EDGE_CURVE('',#144,#145,#91,.T.);
#179=EDGE_CURVE('',#140,#131,#125,.T.);
#180=ORIENTED_EDGE('',*,*,#146,.F.);
#181=ORIENTED_EDGE('',*,*,#147,.T.);
#182=ORIENTED_EDGE('',*,*,#148,.F.);
#183=ORIENTED_EDGE('',*,*,#147,.F.);
#184=ORIENTED_EDGE('',*,*,#149,.F.);
#185=ORIENTED_EDGE('',*,*,#150,.T.);
#186=ORIENTED_EDGE('',*,*,#151,.F.);
#187=ORIENTED_EDGE('',*,*,#150,.F.);
#188=ORIENTED_EDGE('',*,*,#152,.T.);
#189=ORIENTED_EDGE('',*,*,#153,.T.);
#190=ORIENTED_EDGE('',*,*,#154,.F.);
#191=ORIENTED_EDGE('',*,*,#155,.F.);
#192=ORIENTED_EDGE('',*,*,#156,.F.);
#193=ORIENTED_EDGE('',*,*,#157,.F.);
#194=ORIENTED_EDGE('',*,*,#158,.T.);
#195=ORIENTED_EDGE('',*,*,#159,.T.);
#196=ORIENTED_EDGE('',*,*,#160,.T.);
#197=ORIENTED_EDGE('',*,*,#161,.F.);
#198=ORIENTED_EDGE('',*,*,#162,.F.);
#199=ORIENTED_EDGE('',*,*,#153,.F.);
#200=ORIENTED_EDGE('',*,*,#148,.T.);
#201=ORIENTED_EDGE('',*,*,#163,.F.);
#202=ORIENTED_EDGE('',*,*,#164,.T.);
#203=ORIENTED_EDGE('',*,*,#165,.T.);
#204=ORIENTED_EDGE('',*,*,#157,.T.);
#205=ORIENTED_EDGE('',*,*,#166,.F.);
#206=ORIENTED_EDGE('',*,*,#167,.F.);
#207=ORIENTED_EDGE('',*,*,#168,.F.);
#208=ORIENTED_EDGE('',*,*,#169,.F.);
#209=ORIENTED_EDGE('',*,*,#149,.T.);
#210=ORIENTED_EDGE('',*,*,#163,.T.);
#211=ORIENTED_EDGE('',*,*,#170,.T.);
#212=ORIENTED_EDGE('',*,*,#171,.T.);
#213=ORIENTED_EDGE('',*,*,#161,.T.);
#214=ORIENTED_EDGE('',*,*,#156,.T.);
#215=ORIENTED_EDGE('',*,*,#155,.T.);
#216=ORIENTED_EDGE('',*,*,#172,.T.);
#217=ORIENTED_EDGE('',*,*,#170,.F.);
#218=ORIENTED_EDGE('',*,*,#146,.T.);
#219=ORIENTED_EDGE('',*,*,#173,.F.);
#220=ORIENTED_EDGE('',*,*,#174,.F.);
#221=ORIENTED_EDGE('',*,*,#175,.T.);
#222=ORIENTED_EDGE('',*,*,#167,.T.);
#223=ORIENTED_EDGE('',*,*,#165,.F.);
#224=ORIENTED_EDGE('',*,*,#169,.T.);
#225=ORIENTED_EDGE('',*,*,#176,.F.);
#226=ORIENTED_EDGE('',*,*,#177,.T.);
#227=ORIENTED_EDGE('',*,*,#168,.T.);
#228=ORIENTED_EDGE('',*,*,#175,.F.);
#229=ORIENTED_EDGE('',*,*,#178,.T.);
#230=ORIENTED_EDGE('',*,*,#176,.T.);
#231=ORIENTED_EDGE('',*,*,#152,.F.);
#232=ORIENTED_EDGE('',*,*,#159,.F.);
#233=ORIENTED_EDGE('',*,*,#173,.T.);
#234=ORIENTED_EDGE('',*,*,#179,.T.);
#235=ORIENTED_EDGE('',*,*,#162,.T.);
#236=ORIENTED_EDGE('',*,*,#171,.F.);
#237=ORIENTED_EDGE('',*,*,#172,.F.);
#238=ORIENTED_EDGE('',*,*,#154,.T.);
#239=ORIENTED_EDGE('',*,*,#160,.F.);
#240=ORIENTED_EDGE('',*,*,#179,.F.);
#241=ORIENTED_EDGE('',*,*,#166,.T.);
#242=ORIENTED_EDGE('',*,*,#164,.F.);
#243=ORIENTED_EDGE('',*,*,#158,.F.);
#244=ORIENTED_EDGE('',*,*,#177,.F.);
#245=ORIENTED_EDGE('',*,*,#178,.F.);
#246=ORIENTED_EDGE('',*,*,#174,.T.);
#247=ORIENTED_EDGE('',*,*,#151,.T.);
#248=CYLINDRICAL_SURFACE('',#307,6.75);
#249=CYLINDRICAL_SURFACE('',#310,7.);
#250=CYLINDRICAL_SURFACE('',#314,8.);
#251=CYLINDRICAL_SURFACE('',#329,4.);
#252=STYLED_ITEM('',(#497),#268);
#253=STYLED_ITEM('',(#497),#269);
#254=STYLED_ITEM('',(#497),#270);
#255=STYLED_ITEM('',(#497),#271);
#256=STYLED_ITEM('',(#497),#272);
#257=STYLED_ITEM('',(#497),#274);
#258=STYLED_ITEM('',(#497),#275);
#259=STYLED_ITEM('',(#497),#276);
#260=STYLED_ITEM('',(#497),#277);
#261=STYLED_ITEM('',(#497),#278);
#262=STYLED_ITEM('',(#497),#279);
#263=STYLED_ITEM('',(#497),#280);
#264=STYLED_ITEM('',(#497),#281);
#265=STYLED_ITEM('',(#497),#282);
#266=STYLED_ITEM('',(#497),#283);
#267=STYLED_ITEM('',(#497),#13);
#268=ADVANCED_FACE('',(#30),#248,.F.);
#269=ADVANCED_FACE('',(#31),#249,.F.);
#270=ADVANCED_FACE('',(#32),#18,.T.);
#271=ADVANCED_FACE('',(#33),#250,.T.);
#272=ADVANCED_FACE('',(#34,#14),#19,.F.);
#273=ADVANCED_FACE('',(#35),#20,.T.);
#274=ADVANCED_FACE('',(#36,#15),#21,.F.);
#275=ADVANCED_FACE('',(#37),#22,.T.);
#276=ADVANCED_FACE('',(#38,#16),#23,.T.);
#277=ADVANCED_FACE('',(#39),#24,.T.);
#278=ADVANCED_FACE('',(#40),#25,.T.);
#279=ADVANCED_FACE('',(#41),#26,.T.);
#280=ADVANCED_FACE('',(#42),#27,.T.);
#281=ADVANCED_FACE('',(#43),#28,.T.);
#282=ADVANCED_FACE('',(#44),#251,.F.);
#283=ADVANCED_FACE('',(#45,#17),#29,.T.);
#284=CLOSED_SHELL('',(#268,#269,#270,#271,#272,#273,#274,#275,#276,#277,
#278,#279,#280,#281,#282,#283));
#285=DERIVED_UNIT_ELEMENT(#288,1.);
#286=DERIVED_UNIT_ELEMENT(#483,-3.);
#287=DIMENSIONAL_EXPONENTS(0.,1.,0.,0.,0.,0.,0.);
#288=(
CONVERSION_BASED_UNIT('gram',#290)
MASS_UNIT()
NAMED_UNIT(#287)
);
#289=(
MASS_UNIT()
NAMED_UNIT(*)
SI_UNIT(.KILO.,.GRAM.)
);
#290=MASS_MEASURE_WITH_UNIT(MASS_MEASURE(0.001),#289);
#291=DERIVED_UNIT((#285,#286));
#292=MEASURE_REPRESENTATION_ITEM('density measure',
POSITIVE_RATIO_MEASURE(7.872),#291);
#293=PROPERTY_DEFINITION_REPRESENTATION(#298,#295);
#294=PROPERTY_DEFINITION_REPRESENTATION(#299,#296);
#295=REPRESENTATION('material name',(#297),#480);
#296=REPRESENTATION('density',(#292),#480);
#297=DESCRIPTIVE_REPRESENTATION_ITEM(
'\X2\042104420430043B044C\X0\ AISI 1008 91, \X2\0433043E0440044F04470435043A043004420430043D0430044F\X0\',
'\X2\042104420430043B044C\X0\ AISI 1008 91, \X2\0433043E0440044F04470435043A043004420430043D0430044F\X0\');
#298=PROPERTY_DEFINITION('material property','material name',#490);
#299=PROPERTY_DEFINITION('material property','density of part',#490);
#300=DATE_TIME_ROLE('creation_date');
#301=APPLIED_DATE_AND_TIME_ASSIGNMENT(#302,#300,(#490));
#302=DATE_AND_TIME(#303,#304);
#303=CALENDAR_DATE(2020,21,1);
#304=LOCAL_TIME(0,0,0.,#305);
#305=COORDINATED_UNIVERSAL_TIME_OFFSET(0,0,.BEHIND.);
#306=AXIS2_PLACEMENT_3D('',#407,#331,#332);
#307=AXIS2_PLACEMENT_3D('',#408,#333,#334);
#308=AXIS2_PLACEMENT_3D('',#410,#335,#336);
#309=AXIS2_PLACEMENT_3D('',#413,#338,#339);
#310=AXIS2_PLACEMENT_3D('',#414,#340,#341);
#311=AXIS2_PLACEMENT_3D('',#416,#342,#343);
#312=AXIS2_PLACEMENT_3D('',#419,#345,#346);
#313=AXIS2_PLACEMENT_3D('',#420,#347,#348);
#314=AXIS2_PLACEMENT_3D('',#429,#353,#354);
#315=AXIS2_PLACEMENT_3D('',#433,#356,#357);
#316=AXIS2_PLACEMENT_3D('',#436,#359,#360);
#317=AXIS2_PLACEMENT_3D('',#437,#361,#362);
#318=AXIS2_PLACEMENT_3D('',#443,#366,#367);
#319=AXIS2_PLACEMENT_3D('',#446,#369,#370);
#320=AXIS2_PLACEMENT_3D('',#448,#372,#373);
#321=AXIS2_PLACEMENT_3D('',#456,#378,#379);
#322=AXIS2_PLACEMENT_3D('',#460,#382,#383);
#323=AXIS2_PLACEMENT_3D('',#462,#385,#386);
#324=AXIS2_PLACEMENT_3D('',#467,#390,#391);
#325=AXIS2_PLACEMENT_3D('',#471,#394,#395);
#326=AXIS2_PLACEMENT_3D('',#473,#397,#398);
#327=AXIS2_PLACEMENT_3D('',#474,#399,#400);
#328=AXIS2_PLACEMENT_3D('',#475,#401,#402);
#329=AXIS2_PLACEMENT_3D('',#476,#403,#404);
#330=AXIS2_PLACEMENT_3D('',#477,#405,#406);
#331=DIRECTION('axis',(0.,0.,1.));
#332=DIRECTION('refdir',(1.,0.,0.));
#333=DIRECTION('center_axis',(0.707106781186548,0.,0.707106781186547));
#334=DIRECTION('ref_axis',(0.707106781186547,-1.92592994438724E-34,-0.707106781186548));
#335=DIRECTION('center_axis',(0.707106781186548,3.32402103181184E-18,0.707106781186547));
#336=DIRECTION('ref_axis',(0.707106781186547,-1.92592994438724E-34,-0.707106781186548));
#337=DIRECTION('',(0.707106781186548,0.,0.707106781186547));
#338=DIRECTION('center_axis',(-0.707106781186548,3.32402103181187E-18,-0.707106781186547));
#339=DIRECTION('ref_axis',(0.707106781186547,-1.92592994438724E-34,-0.707106781186548));
#340=DIRECTION('center_axis',(1.,0.,0.));
#341=DIRECTION('ref_axis',(0.,0.,-1.));
#342=DIRECTION('center_axis',(1.,3.32402103181187E-18,-1.35300377041788E-16));
#343=DIRECTION('ref_axis',(0.,0.,-1.));
#344=DIRECTION('',(1.,0.,0.));
#345=DIRECTION('center_axis',(-1.,3.32402103181184E-18,1.35300377041788E-16));
#346=DIRECTION('ref_axis',(0.,0.,-1.));
#347=DIRECTION('center_axis',(0.,-1.,0.));
#348=DIRECTION('ref_axis',(-0.707106781186547,0.,0.707106781186548));
#349=DIRECTION('',(0.707106781186548,0.,0.707106781186547));
#350=DIRECTION('',(-0.707106781186547,0.,0.707106781186548));
#351=DIRECTION('',(0.707106781186548,0.,0.707106781186547));
#352=DIRECTION('',(-0.707106781186547,0.,0.707106781186548));
#353=DIRECTION('center_axis',(0.,1.,0.));
#354=DIRECTION('ref_axis',(1.,0.,-1.22464679914735E-16));
#355=DIRECTION('',(2.35043781240086E-18,-1.,2.35043781240085E-18));
#356=DIRECTION('center_axis',(0.,1.,0.));
#357=DIRECTION('ref_axis',(1.,0.,0.));
#358=DIRECTION('',(-3.32402103181184E-18,-1.,4.07075171690685E-34));
#359=DIRECTION('center_axis',(0.,1.,0.));
#360=DIRECTION('ref_axis',(1.,0.,0.));
#361=DIRECTION('center_axis',(-0.707106781186548,3.32402103181187E-18,-0.707106781186547));
#362=DIRECTION('ref_axis',(-0.707106781186547,0.,0.707106781186548));
#363=DIRECTION('',(2.35043781240088E-18,1.,2.35043781240088E-18));
#364=DIRECTION('',(0.707106781186547,0.,-0.707106781186548));
#365=DIRECTION('',(0.,1.,0.));
#366=DIRECTION('center_axis',(0.,1.,0.));
#367=DIRECTION('ref_axis',(0.,0.,1.));
#368=DIRECTION('',(-0.707106781186548,0.,-0.707106781186547));
#369=DIRECTION('center_axis',(0.,-1.,0.));
#370=DIRECTION('ref_axis',(-0.707106781186549,0.,-0.707106781186547));
#371=DIRECTION('',(1.,0.,-1.22464679914735E-16));
#372=DIRECTION('center_axis',(1.,3.32402103181187E-18,-1.35300377041788E-16));
#373=DIRECTION('ref_axis',(-1.35300377041788E-16,0.,-1.));
#374=DIRECTION('',(-3.32402103181187E-18,1.,4.07075171690689E-34));
#375=DIRECTION('',(-2.22044604925031E-16,0.,-1.));
#376=DIRECTION('',(0.,-1.,0.));
#377=DIRECTION('',(1.22464679914735E-16,0.,1.));
#378=DIRECTION('center_axis',(0.,1.,0.));
#379=DIRECTION('ref_axis',(0.707106781186547,0.,-0.707106781186548));
#380=DIRECTION('',(-0.707106781186547,0.,0.707106781186548));
#381=DIRECTION('',(0.707106781186548,0.,0.707106781186547));
#382=DIRECTION('center_axis',(-0.707106781186548,-3.32402103181184E-18,
-0.707106781186547));
#383=DIRECTION('ref_axis',(-0.707106781186547,0.,0.707106781186548));
#384=DIRECTION('',(0.,1.,0.));
#385=DIRECTION('center_axis',(0.,-1.,0.));
#386=DIRECTION('ref_axis',(0.,0.,-1.));
#387=DIRECTION('',(-1.,0.,1.22464679914735E-16));
#388=DIRECTION('',(-1.22464679914735E-16,0.,-1.));
#389=DIRECTION('',(-1.,0.,0.));
#390=DIRECTION('center_axis',(0.,1.,0.));
#391=DIRECTION('ref_axis',(0.,0.,1.));
#392=DIRECTION('',(-1.,0.,0.));
#393=DIRECTION('',(-1.22464679914735E-16,0.,-1.));
#394=DIRECTION('center_axis',(0.,0.,1.));
#395=DIRECTION('ref_axis',(1.,0.,0.));
#396=DIRECTION('',(0.,1.,0.));
#397=DIRECTION('center_axis',(0.,-1.,0.));
#398=DIRECTION('ref_axis',(0.,0.,-1.));
#399=DIRECTION('center_axis',(0.,1.,0.));
#400=DIRECTION('ref_axis',(1.,0.,0.));
#401=DIRECTION('center_axis',(-0.707106781186547,0.,0.707106781186548));
#402=DIRECTION('ref_axis',(0.707106781186548,0.,0.707106781186547));
#403=DIRECTION('center_axis',(0.,1.,0.));
#404=DIRECTION('ref_axis',(1.,0.,-1.22464679914735E-16));
#405=DIRECTION('center_axis',(1.,-3.32402103181184E-18,-1.35300377041788E-16));
#406=DIRECTION('ref_axis',(-1.35300377041788E-16,0.,-1.));
#407=CARTESIAN_POINT('',(0.,0.,0.));
#408=CARTESIAN_POINT('Origin',(-62.2253967444162,20.,-15.4314575050761));
#409=CARTESIAN_POINT('',(-66.9983675174254,20.,-10.6584867320669));
#410=CARTESIAN_POINT('Origin',(-62.2253967444162,20.,-15.4314575050761));
#411=CARTESIAN_POINT('',(-64.1699403926792,20.,-7.83005960732073));
#412=CARTESIAN_POINT('',(-66.9983675174254,20.,-10.6584867320669));
#413=CARTESIAN_POINT('Origin',(-59.39696961967,20.,-12.6030303803299));
#414=CARTESIAN_POINT('Origin',(-1.80279257624058E-15,20.,-21.));
#415=CARTESIAN_POINT('',(-8.55689936948062E-16,20.,-14.));
#416=CARTESIAN_POINT('Origin',(-1.0547118733939E-14,20.,-21.));
#417=CARTESIAN_POINT('',(4.,20.,-14.));
#418=CARTESIAN_POINT('',(-1.80279257624058E-15,20.,-14.));
#419=CARTESIAN_POINT('Origin',(3.99999999999999,20.,-21.));
#420=CARTESIAN_POINT('Origin',(-9.6568542494924,0.,-68.));
#421=CARTESIAN_POINT('',(-9.6568542494924,0.,-68.));
#422=CARTESIAN_POINT('',(-6.82842712474621,0.,-65.1715728752538));
#423=CARTESIAN_POINT('',(-8.86489465456346,0.,-67.2080404050711));
#424=CARTESIAN_POINT('',(-74.2462120245875,0.,2.24621202458758));
#425=CARTESIAN_POINT('',(-6.82842712474622,0.,-65.1715728752538));
#426=CARTESIAN_POINT('',(-77.0746391493337,0.,-0.582215100158603));
#427=CARTESIAN_POINT('',(-77.0746391493337,0.,-0.582215100158603));
#428=CARTESIAN_POINT('',(44.0230340176149,0.,-121.679888267107));
#429=CARTESIAN_POINT('Origin',(-4.00000000000001,20.,-62.3431457505076));
#430=CARTESIAN_POINT('',(-9.6568542494924,40.,-68.));
#431=CARTESIAN_POINT('',(-9.65685424949239,20.,-68.));
#432=CARTESIAN_POINT('',(3.99999999999999,40.,-62.3431457505076));
#433=CARTESIAN_POINT('Origin',(-4.00000000000001,40.,-62.3431457505076));
#434=CARTESIAN_POINT('',(3.99999999999999,0.,-62.3431457505076));
#435=CARTESIAN_POINT('',(3.99999999999999,20.,-62.3431457505076));
#436=CARTESIAN_POINT('Origin',(-4.00000000000001,0.,-62.3431457505076));
#437=CARTESIAN_POINT('Origin',(-13.6973754411132,20.,-58.3026245588868));
#438=CARTESIAN_POINT('',(-6.82842712474621,40.,-65.1715728752538));
#439=CARTESIAN_POINT('',(-6.8284271247462,20.,-65.1715728752538));
#440=CARTESIAN_POINT('',(-74.2462120245875,40.,2.24621202458758));
#441=CARTESIAN_POINT('',(46.8514611423611,40.,-118.851461142361));
#442=CARTESIAN_POINT('',(-74.2462120245875,0.,2.24621202458758));
#443=CARTESIAN_POINT('Origin',(-6.8284271247462,40.,-65.1715728752538));
#444=CARTESIAN_POINT('',(-8.86489465456346,40.,-67.2080404050711));
#445=CARTESIAN_POINT('',(-8.18994490152619E-15,40.,-62.3431457505076));
#446=CARTESIAN_POINT('Origin',(-4.00000000000001,40.,-62.3431457505076));
#447=CARTESIAN_POINT('',(2.87999999999999,40.,-62.3431457505076));
#448=CARTESIAN_POINT('Origin',(-1.0547118733939E-14,20.,-85.6289858822616));
#449=CARTESIAN_POINT('',(-2.53759674084632E-15,0.,-62.3431457505076));
#450=CARTESIAN_POINT('',(-7.35522753814166E-15,20.,-62.3431457505076));
#451=CARTESIAN_POINT('',(1.11022302462516E-15,0.,-4.89858719658941E-16));
#452=CARTESIAN_POINT('',(-5.55111512312578E-15,0.,-75.9148260140155));
#453=CARTESIAN_POINT('',(1.11022302462516E-15,40.,-4.89858719658941E-16));
#454=CARTESIAN_POINT('',(-5.55111512312578E-16,0.,-4.89858719658941E-16));
#455=CARTESIAN_POINT('',(-5.55111512312578E-16,40.,-4.89858719658941E-16));
#456=CARTESIAN_POINT('Origin',(-0.060227103070325,40.,-77.5966271464221));
#457=CARTESIAN_POINT('',(-77.0746391493337,40.,-0.582215100158603));
#458=CARTESIAN_POINT('',(44.0230340176149,40.,-121.679888267107));
#459=CARTESIAN_POINT('',(-77.0746391493337,40.,-0.582215100158603));
#460=CARTESIAN_POINT('Origin',(-16.5258025658594,20.,-61.131051683633));
#461=CARTESIAN_POINT('',(-77.0746391493337,0.,-0.582215100158603));
#462=CARTESIAN_POINT('Origin',(3.99999999999999,0.,-75.9148260140155));
#463=CARTESIAN_POINT('',(2.87999999999999,0.,-62.3431457505076));
#464=CARTESIAN_POINT('',(4.,0.,-4.89858719658941E-16));
#465=CARTESIAN_POINT('',(4.,0.,-4.89858719658941E-16));
#466=CARTESIAN_POINT('',(4.,0.,-4.89858719658941E-16));
#467=CARTESIAN_POINT('Origin',(3.99999999999999,40.,-62.3431457505076));
#468=CARTESIAN_POINT('',(4.,40.,-4.89858719658941E-16));
#469=CARTESIAN_POINT('',(4.,40.,-4.89858719658941E-16));
#470=CARTESIAN_POINT('',(4.,40.,-4.89858719658941E-16));
#471=CARTESIAN_POINT('Origin',(4.,40.,-4.89858719658941E-16));
#472=CARTESIAN_POINT('',(4.,0.,-4.89858719658941E-16));
#473=CARTESIAN_POINT('Origin',(-9.65685424949239,0.,-68.));
#474=CARTESIAN_POINT('Origin',(-4.00000000000001,0.,-62.3431457505076));
#475=CARTESIAN_POINT('Origin',(-77.0746391493337,0.,-0.582215100158603));
#476=CARTESIAN_POINT('Origin',(-4.00000000000001,20.,-62.3431457505076));
#477=CARTESIAN_POINT('Origin',(3.99999999999999,20.,-85.6289858822616));
#478=UNCERTAINTY_MEASURE_WITH_UNIT(LENGTH_MEASURE(0.01),#482,
'DISTANCE_ACCURACY_VALUE',
'Maximum model space distance between geometric entities at asserted c
onnectivities');
#479=UNCERTAINTY_MEASURE_WITH_UNIT(LENGTH_MEASURE(0.01),#482,
'DISTANCE_ACCURACY_VALUE',
'Maximum model space distance between geometric entities at asserted c
onnectivities');
#480=(
GEOMETRIC_REPRESENTATION_CONTEXT(3)
GLOBAL_UNCERTAINTY_ASSIGNED_CONTEXT((#478))
GLOBAL_UNIT_ASSIGNED_CONTEXT((#482,#484,#485))
REPRESENTATION_CONTEXT('','3D')
);
#481=(
GEOMETRIC_REPRESENTATION_CONTEXT(3)
GLOBAL_UNCERTAINTY_ASSIGNED_CONTEXT((#479))
GLOBAL_UNIT_ASSIGNED_CONTEXT((#482,#484,#485))
REPRESENTATION_CONTEXT('','3D')
);
#482=(
LENGTH_UNIT()
NAMED_UNIT(*)
SI_UNIT(.MILLI.,.METRE.)
);
#483=(
LENGTH_UNIT()
NAMED_UNIT(*)
SI_UNIT(.CENTI.,.METRE.)
);
#484=(
NAMED_UNIT(*)
PLANE_ANGLE_UNIT()
SI_UNIT($,.RADIAN.)
);
#485=(
NAMED_UNIT(*)
SI_UNIT($,.STERADIAN.)
SOLID_ANGLE_UNIT()
);
#486=SHAPE_DEFINITION_REPRESENTATION(#487,#488);
#487=PRODUCT_DEFINITION_SHAPE('',$,#490);
#488=SHAPE_REPRESENTATION('',(#306),#480);
#489=PRODUCT_DEFINITION_CONTEXT('part definition',#494,'design');
#490=PRODUCT_DEFINITION(
'\X2\04230433043E043B043E043A\X0\ \X2\043E044104420440044B043C\X0\ \X2\04430433043B043E043C\X0\ 
135 \X2\04330440\X0\. \X2\0441\X0\ \X2\043404320443043C044F\X0\ \X2\043E0442043204350440044104420438044F043C0438\X0\,
 USG135x2','308223 USG135x2',#491,#489);
#491=PRODUCT_DEFINITION_FORMATION('',$,#496);
#492=PRODUCT_RELATED_PRODUCT_CATEGORY('308223 USG135x2',
'308223 USG135x2',(#496));
#493=APPLICATION_PROTOCOL_DEFINITION('international standard',
'automotive_design',2009,#494);
#494=APPLICATION_CONTEXT(
'Core Data for Automotive Mechanical Design Process');
#495=PRODUCT_CONTEXT('part definition',#494,'mechanical');
#496=PRODUCT(
'\X2\04230433043E043B043E043A\X0\ \X2\043E044104420440044B043C\X0\ \X2\04430433043B043E043C\X0\ 
135 \X2\04330440\X0\. \X2\0441\X0\ \X2\043404320443043C044F\X0\ \X2\043E0442043204350440044104420438044F043C0438\X0\,
 USG135x2','308223 USG135x2',$,(#495));
#497=PRESENTATION_STYLE_ASSIGNMENT((#498));
#498=SURFACE_STYLE_USAGE(.BOTH.,#501);
#499=SURFACE_STYLE_RENDERING_WITH_PROPERTIES($,#505,(#500));
#500=SURFACE_STYLE_TRANSPARENT(0.);
#501=SURFACE_SIDE_STYLE('',(#502,#499));
#502=SURFACE_STYLE_FILL_AREA(#503);
#503=FILL_AREA_STYLE('',(#504));
#504=FILL_AREA_STYLE_COLOUR('',#505);
#505=COLOUR_RGB('',0.745098039215686,0.737254901960784,0.729411764705882);
ENDSEC;
END-ISO-10303-21;
