ISO-10303-21;
HEADER;
/* Generated by software containing ST-Developer
 * from STEP Tools, Inc. (www.steptools.com) 
 */

FILE_DESCRIPTION(
/* description */ (''),
/* implementation_level */ '2;1');

FILE_NAME(
/* name */ 'USL.ipt.stp',
/* time_stamp */ '2023-05-17T09:46:39+03:00',
/* author */ ('Man88'),
/* organization */ (''),
/* preprocessor_version */ 'ST-DEVELOPER v19.2',
/* originating_system */ 'Autodesk Inventor 2023',
/* authorisation */ '');

FILE_SCHEMA (('AUTOMOTIVE_DESIGN { 1 0 10303 214 3 1 1 }'));
ENDSEC;

DATA;
#10=MECHANICAL_DESIGN_GEOMETRIC_PRESENTATION_REPRESENTATION('',(#13),#375);
#11=SHAPE_REPRESENTATION_RELATIONSHIP('SRR','None',#382,#12);
#12=ADVANCED_BREP_SHAPE_REPRESENTATION('',(#14),#374);
#13=STYLED_ITEM('',(#391),#14);
#14=MANIFOLD_SOLID_BREP('\X2\04220432043504400434043E0435\X0\ \X2\04420435043B043E\X0\1',
#218);
#15=CYLINDRICAL_SURFACE('',#251,7.);
#16=CYLINDRICAL_SURFACE('',#253,7.);
#17=CYLINDRICAL_SURFACE('',#255,7.);
#18=FACE_BOUND('',#48,.T.);
#19=FACE_BOUND('',#49,.T.);
#20=FACE_BOUND('',#50,.T.);
#21=FACE_BOUND('',#55,.T.);
#22=FACE_BOUND('',#56,.T.);
#23=FACE_BOUND('',#57,.T.);
#24=CIRCLE('',#248,7.);
#25=CIRCLE('',#249,7.);
#26=CIRCLE('',#250,7.);
#27=CIRCLE('',#252,7.);
#28=CIRCLE('',#254,7.);
#29=CIRCLE('',#256,7.);
#30=FACE_OUTER_BOUND('',#41,.T.);
#31=FACE_OUTER_BOUND('',#42,.T.);
#32=FACE_OUTER_BOUND('',#43,.T.);
#33=FACE_OUTER_BOUND('',#44,.T.);
#34=FACE_OUTER_BOUND('',#45,.T.);
#35=FACE_OUTER_BOUND('',#46,.T.);
#36=FACE_OUTER_BOUND('',#47,.T.);
#37=FACE_OUTER_BOUND('',#51,.T.);
#38=FACE_OUTER_BOUND('',#52,.T.);
#39=FACE_OUTER_BOUND('',#53,.T.);
#40=FACE_OUTER_BOUND('',#54,.T.);
#41=EDGE_LOOP('',(#145,#146,#147,#148));
#42=EDGE_LOOP('',(#149,#150,#151,#152));
#43=EDGE_LOOP('',(#153,#154,#155,#156));
#44=EDGE_LOOP('',(#157,#158,#159,#160));
#45=EDGE_LOOP('',(#161,#162,#163,#164));
#46=EDGE_LOOP('',(#165,#166,#167,#168));
#47=EDGE_LOOP('',(#169,#170,#171,#172,#173,#174));
#48=EDGE_LOOP('',(#175));
#49=EDGE_LOOP('',(#176));
#50=EDGE_LOOP('',(#177));
#51=EDGE_LOOP('',(#178,#179,#180,#181));
#52=EDGE_LOOP('',(#182,#183,#184,#185));
#53=EDGE_LOOP('',(#186,#187,#188,#189));
#54=EDGE_LOOP('',(#190,#191,#192,#193,#194,#195));
#55=EDGE_LOOP('',(#196));
#56=EDGE_LOOP('',(#197));
#57=EDGE_LOOP('',(#198));
#58=LINE('',#319,#79);
#59=LINE('',#321,#80);
#60=LINE('',#323,#81);
#61=LINE('',#324,#82);
#62=LINE('',#327,#83);
#63=LINE('',#329,#84);
#64=LINE('',#330,#85);
#65=LINE('',#334,#86);
#66=LINE('',#336,#87);
#67=LINE('',#338,#88);
#68=LINE('',#339,#89);
#69=LINE('',#341,#90);
#70=LINE('',#342,#91);
#71=LINE('',#345,#92);
#72=LINE('',#347,#93);
#73=LINE('',#348,#94);
#74=LINE('',#350,#95);
#75=LINE('',#351,#96);
#76=LINE('',#361,#97);
#77=LINE('',#365,#98);
#78=LINE('',#369,#99);
#79=VECTOR('',#262,10.);
#80=VECTOR('',#263,10.);
#81=VECTOR('',#264,10.);
#82=VECTOR('',#265,10.);
#83=VECTOR('',#268,10.);
#84=VECTOR('',#269,10.);
#85=VECTOR('',#270,10.);
#86=VECTOR('',#273,10.);
#87=VECTOR('',#274,10.);
#88=VECTOR('',#275,10.);
#89=VECTOR('',#276,10.);
#90=VECTOR('',#279,10.);
#91=VECTOR('',#280,10.);
#92=VECTOR('',#283,10.);
#93=VECTOR('',#284,10.);
#94=VECTOR('',#285,10.);
#95=VECTOR('',#288,10.);
#96=VECTOR('',#289,10.);
#97=VECTOR('',#300,7.);
#98=VECTOR('',#305,7.);
#99=VECTOR('',#310,7.);
#100=VERTEX_POINT('',#317);
#101=VERTEX_POINT('',#318);
#102=VERTEX_POINT('',#320);
#103=VERTEX_POINT('',#322);
#104=VERTEX_POINT('',#326);
#105=VERTEX_POINT('',#328);
#106=VERTEX_POINT('',#332);
#107=VERTEX_POINT('',#333);
#108=VERTEX_POINT('',#335);
#109=VERTEX_POINT('',#337);
#110=VERTEX_POINT('',#344);
#111=VERTEX_POINT('',#346);
#112=VERTEX_POINT('',#353);
#113=VERTEX_POINT('',#355);
#114=VERTEX_POINT('',#357);
#115=VERTEX_POINT('',#360);
#116=VERTEX_POINT('',#364);
#117=VERTEX_POINT('',#368);
#118=EDGE_CURVE('',#100,#101,#58,.T.);
#119=EDGE_CURVE('',#100,#102,#59,.T.);
#120=EDGE_CURVE('',#102,#103,#60,.T.);
#121=EDGE_CURVE('',#101,#103,#61,.T.);
#122=EDGE_CURVE('',#103,#104,#62,.T.);
#123=EDGE_CURVE('',#105,#104,#63,.T.);
#124=EDGE_CURVE('',#101,#105,#64,.T.);
#125=EDGE_CURVE('',#106,#107,#65,.T.);
#126=EDGE_CURVE('',#108,#107,#66,.T.);
#127=EDGE_CURVE('',#109,#108,#67,.T.);
#128=EDGE_CURVE('',#109,#106,#68,.T.);
#129=EDGE_CURVE('',#105,#109,#69,.T.);
#130=EDGE_CURVE('',#104,#106,#70,.T.);
#131=EDGE_CURVE('',#107,#110,#71,.T.);
#132=EDGE_CURVE('',#111,#110,#72,.T.);
#133=EDGE_CURVE('',#108,#111,#73,.T.);
#134=EDGE_CURVE('',#111,#100,#74,.T.);
#135=EDGE_CURVE('',#110,#102,#75,.T.);
#136=EDGE_CURVE('',#112,#112,#24,.T.);
#137=EDGE_CURVE('',#113,#113,#25,.T.);
#138=EDGE_CURVE('',#114,#114,#26,.T.);
#139=EDGE_CURVE('',#114,#115,#76,.T.);
#140=EDGE_CURVE('',#115,#115,#27,.T.);
#141=EDGE_CURVE('',#113,#116,#77,.T.);
#142=EDGE_CURVE('',#116,#116,#28,.T.);
#143=EDGE_CURVE('',#112,#117,#78,.T.);
#144=EDGE_CURVE('',#117,#117,#29,.T.);
#145=ORIENTED_EDGE('',*,*,#118,.F.);
#146=ORIENTED_EDGE('',*,*,#119,.T.);
#147=ORIENTED_EDGE('',*,*,#120,.T.);
#148=ORIENTED_EDGE('',*,*,#121,.F.);
#149=ORIENTED_EDGE('',*,*,#121,.T.);
#150=ORIENTED_EDGE('',*,*,#122,.T.);
#151=ORIENTED_EDGE('',*,*,#123,.F.);
#152=ORIENTED_EDGE('',*,*,#124,.F.);
#153=ORIENTED_EDGE('',*,*,#125,.T.);
#154=ORIENTED_EDGE('',*,*,#126,.F.);
#155=ORIENTED_EDGE('',*,*,#127,.F.);
#156=ORIENTED_EDGE('',*,*,#128,.T.);
#157=ORIENTED_EDGE('',*,*,#128,.F.);
#158=ORIENTED_EDGE('',*,*,#129,.F.);
#159=ORIENTED_EDGE('',*,*,#123,.T.);
#160=ORIENTED_EDGE('',*,*,#130,.T.);
#161=ORIENTED_EDGE('',*,*,#126,.T.);
#162=ORIENTED_EDGE('',*,*,#131,.T.);
#163=ORIENTED_EDGE('',*,*,#132,.F.);
#164=ORIENTED_EDGE('',*,*,#133,.F.);
#165=ORIENTED_EDGE('',*,*,#134,.F.);
#166=ORIENTED_EDGE('',*,*,#132,.T.);
#167=ORIENTED_EDGE('',*,*,#135,.T.);
#168=ORIENTED_EDGE('',*,*,#119,.F.);
#169=ORIENTED_EDGE('',*,*,#118,.T.);
#170=ORIENTED_EDGE('',*,*,#124,.T.);
#171=ORIENTED_EDGE('',*,*,#129,.T.);
#172=ORIENTED_EDGE('',*,*,#127,.T.);
#173=ORIENTED_EDGE('',*,*,#133,.T.);
#174=ORIENTED_EDGE('',*,*,#134,.T.);
#175=ORIENTED_EDGE('',*,*,#136,.T.);
#176=ORIENTED_EDGE('',*,*,#137,.T.);
#177=ORIENTED_EDGE('',*,*,#138,.T.);
#178=ORIENTED_EDGE('',*,*,#138,.F.);
#179=ORIENTED_EDGE('',*,*,#139,.T.);
#180=ORIENTED_EDGE('',*,*,#140,.F.);
#181=ORIENTED_EDGE('',*,*,#139,.F.);
#182=ORIENTED_EDGE('',*,*,#137,.F.);
#183=ORIENTED_EDGE('',*,*,#141,.T.);
#184=ORIENTED_EDGE('',*,*,#142,.F.);
#185=ORIENTED_EDGE('',*,*,#141,.F.);
#186=ORIENTED_EDGE('',*,*,#136,.F.);
#187=ORIENTED_EDGE('',*,*,#143,.T.);
#188=ORIENTED_EDGE('',*,*,#144,.F.);
#189=ORIENTED_EDGE('',*,*,#143,.F.);
#190=ORIENTED_EDGE('',*,*,#120,.F.);
#191=ORIENTED_EDGE('',*,*,#135,.F.);
#192=ORIENTED_EDGE('',*,*,#131,.F.);
#193=ORIENTED_EDGE('',*,*,#125,.F.);
#194=ORIENTED_EDGE('',*,*,#130,.F.);
#195=ORIENTED_EDGE('',*,*,#122,.F.);
#196=ORIENTED_EDGE('',*,*,#140,.T.);
#197=ORIENTED_EDGE('',*,*,#142,.T.);
#198=ORIENTED_EDGE('',*,*,#144,.T.);
#199=PLANE('',#241);
#200=PLANE('',#242);
#201=PLANE('',#243);
#202=PLANE('',#244);
#203=PLANE('',#245);
#204=PLANE('',#246);
#205=PLANE('',#247);
#206=PLANE('',#257);
#207=ADVANCED_FACE('',(#30),#199,.T.);
#208=ADVANCED_FACE('',(#31),#200,.T.);
#209=ADVANCED_FACE('',(#32),#201,.T.);
#210=ADVANCED_FACE('',(#33),#202,.T.);
#211=ADVANCED_FACE('',(#34),#203,.T.);
#212=ADVANCED_FACE('',(#35),#204,.T.);
#213=ADVANCED_FACE('',(#36,#18,#19,#20),#205,.F.);
#214=ADVANCED_FACE('',(#37),#15,.F.);
#215=ADVANCED_FACE('',(#38),#16,.F.);
#216=ADVANCED_FACE('',(#39),#17,.F.);
#217=ADVANCED_FACE('',(#40,#21,#22,#23),#206,.T.);
#218=CLOSED_SHELL('',(#207,#208,#209,#210,#211,#212,#213,#214,#215,#216,
#217));
#219=DERIVED_UNIT_ELEMENT(#222,1.);
#220=DERIVED_UNIT_ELEMENT(#377,-3.);
#221=DIMENSIONAL_EXPONENTS(0.,1.,0.,0.,0.,0.,0.);
#222=(
CONVERSION_BASED_UNIT('gram',#224)
MASS_UNIT()
NAMED_UNIT(#221)
);
#223=(
MASS_UNIT()
NAMED_UNIT(*)
SI_UNIT(.KILO.,.GRAM.)
);
#224=MASS_MEASURE_WITH_UNIT(MASS_MEASURE(0.001),#223);
#225=DERIVED_UNIT((#219,#220));
#226=MEASURE_REPRESENTATION_ITEM('density measure',
POSITIVE_RATIO_MEASURE(1.),#225);
#227=PROPERTY_DEFINITION_REPRESENTATION(#232,#229);
#228=PROPERTY_DEFINITION_REPRESENTATION(#233,#230);
#229=REPRESENTATION('material name',(#231),#374);
#230=REPRESENTATION('density',(#226),#374);
#231=DESCRIPTIVE_REPRESENTATION_ITEM('\X2\04220438043F043E0432044B0435\X0\',
'\X2\04220438043F043E0432044B0435\X0\');
#232=PROPERTY_DEFINITION('material property','material name',#384);
#233=PROPERTY_DEFINITION('material property','density of part',#384);
#234=DATE_TIME_ROLE('creation_date');
#235=APPLIED_DATE_AND_TIME_ASSIGNMENT(#236,#234,(#384));
#236=DATE_AND_TIME(#237,#238);
#237=CALENDAR_DATE(2019,28,6);
#238=LOCAL_TIME(0,0,0.,#239);
#239=COORDINATED_UNIVERSAL_TIME_OFFSET(0,0,.BEHIND.);
#240=AXIS2_PLACEMENT_3D('',#315,#258,#259);
#241=AXIS2_PLACEMENT_3D('',#316,#260,#261);
#242=AXIS2_PLACEMENT_3D('',#325,#266,#267);
#243=AXIS2_PLACEMENT_3D('',#331,#271,#272);
#244=AXIS2_PLACEMENT_3D('',#340,#277,#278);
#245=AXIS2_PLACEMENT_3D('',#343,#281,#282);
#246=AXIS2_PLACEMENT_3D('',#349,#286,#287);
#247=AXIS2_PLACEMENT_3D('',#352,#290,#291);
#248=AXIS2_PLACEMENT_3D('',#354,#292,#293);
#249=AXIS2_PLACEMENT_3D('',#356,#294,#295);
#250=AXIS2_PLACEMENT_3D('',#358,#296,#297);
#251=AXIS2_PLACEMENT_3D('',#359,#298,#299);
#252=AXIS2_PLACEMENT_3D('',#362,#301,#302);
#253=AXIS2_PLACEMENT_3D('',#363,#303,#304);
#254=AXIS2_PLACEMENT_3D('',#366,#306,#307);
#255=AXIS2_PLACEMENT_3D('',#367,#308,#309);
#256=AXIS2_PLACEMENT_3D('',#370,#311,#312);
#257=AXIS2_PLACEMENT_3D('',#371,#313,#314);
#258=DIRECTION('axis',(0.,0.,1.));
#259=DIRECTION('refdir',(1.,0.,0.));
#260=DIRECTION('center_axis',(1.,0.,-4.28626379701574E-16));
#261=DIRECTION('ref_axis',(-4.28626379701574E-16,0.,-1.));
#262=DIRECTION('',(4.28626379701574E-16,0.,1.));
#263=DIRECTION('',(0.,1.,0.));
#264=DIRECTION('',(4.28626379701574E-16,0.,1.));
#265=DIRECTION('',(0.,1.,0.));
#266=DIRECTION('center_axis',(0.,0.,1.));
#267=DIRECTION('ref_axis',(1.,0.,0.));
#268=DIRECTION('',(-1.,0.,0.));
#269=DIRECTION('',(0.,1.,0.));
#270=DIRECTION('',(-1.,0.,0.));
#271=DIRECTION('center_axis',(1.77635683940025E-16,0.,1.));
#272=DIRECTION('ref_axis',(1.,0.,-1.77635683940025E-16));
#273=DIRECTION('',(-1.,0.,1.77635683940025E-16));
#274=DIRECTION('',(0.,1.,0.));
#275=DIRECTION('',(-1.,0.,1.77635683940025E-16));
#276=DIRECTION('',(0.,1.,0.));
#277=DIRECTION('center_axis',(-1.,0.,0.));
#278=DIRECTION('ref_axis',(0.,0.,1.));
#279=DIRECTION('',(0.,0.,-1.));
#280=DIRECTION('',(0.,0.,-1.));
#281=DIRECTION('center_axis',(-1.,0.,4.44089209850063E-16));
#282=DIRECTION('ref_axis',(4.44089209850063E-16,0.,1.));
#283=DIRECTION('',(-4.44089209850063E-16,0.,-1.));
#284=DIRECTION('',(0.,1.,0.));
#285=DIRECTION('',(-4.44089209850063E-16,0.,-1.));
#286=DIRECTION('center_axis',(-3.94745964311167E-16,0.,-1.));
#287=DIRECTION('ref_axis',(-1.,0.,3.94745964311167E-16));
#288=DIRECTION('',(1.,0.,-3.94745964311167E-16));
#289=DIRECTION('',(1.,0.,-3.94745964311167E-16));
#290=DIRECTION('center_axis',(0.,1.,0.));
#291=DIRECTION('ref_axis',(0.,0.,1.));
#292=DIRECTION('center_axis',(0.,1.,0.));
#293=DIRECTION('ref_axis',(1.,0.,0.));
#294=DIRECTION('center_axis',(0.,1.,0.));
#295=DIRECTION('ref_axis',(1.,0.,0.));
#296=DIRECTION('center_axis',(0.,1.,0.));
#297=DIRECTION('ref_axis',(1.,0.,0.));
#298=DIRECTION('center_axis',(0.,1.,0.));
#299=DIRECTION('ref_axis',(1.,0.,0.));
#300=DIRECTION('',(0.,1.,0.));
#301=DIRECTION('center_axis',(0.,-1.,0.));
#302=DIRECTION('ref_axis',(1.,0.,0.));
#303=DIRECTION('center_axis',(0.,1.,0.));
#304=DIRECTION('ref_axis',(1.,0.,0.));
#305=DIRECTION('',(0.,1.,0.));
#306=DIRECTION('center_axis',(0.,-1.,0.));
#307=DIRECTION('ref_axis',(1.,0.,0.));
#308=DIRECTION('center_axis',(0.,1.,0.));
#309=DIRECTION('ref_axis',(1.,0.,0.));
#310=DIRECTION('',(0.,1.,0.));
#311=DIRECTION('center_axis',(0.,-1.,0.));
#312=DIRECTION('ref_axis',(1.,0.,0.));
#313=DIRECTION('center_axis',(0.,1.,0.));
#314=DIRECTION('ref_axis',(0.,0.,1.));
#315=CARTESIAN_POINT('',(0.,0.,0.));
#316=CARTESIAN_POINT('Origin',(-3.85763741731416E-14,0.,-90.));
#317=CARTESIAN_POINT('',(-3.92420521921593E-14,0.,-90.));
#318=CARTESIAN_POINT('',(0.,0.,0.));
#319=CARTESIAN_POINT('',(-3.85763741731416E-14,0.,-90.));
#320=CARTESIAN_POINT('',(-3.7021606142909E-14,4.,-90.));
#321=CARTESIAN_POINT('',(-3.5527136788005E-14,0.,-90.));
#322=CARTESIAN_POINT('',(0.,4.,0.));
#323=CARTESIAN_POINT('',(-3.85763741731416E-14,4.,-90.));
#324=CARTESIAN_POINT('',(0.,0.,0.));
#325=CARTESIAN_POINT('Origin',(0.,0.,0.));
#326=CARTESIAN_POINT('',(-40.,4.,0.));
#327=CARTESIAN_POINT('',(0.,4.,0.));
#328=CARTESIAN_POINT('',(-40.,0.,0.));
#329=CARTESIAN_POINT('',(-40.,0.,0.));
#330=CARTESIAN_POINT('',(0.,0.,0.));
#331=CARTESIAN_POINT('Origin',(-40.,0.,-50.));
#332=CARTESIAN_POINT('',(-40.,4.,-50.));
#333=CARTESIAN_POINT('',(-90.,4.,-50.));
#334=CARTESIAN_POINT('',(-40.,4.,-50.));
#335=CARTESIAN_POINT('',(-90.,0.,-50.));
#336=CARTESIAN_POINT('',(-90.,0.,-50.));
#337=CARTESIAN_POINT('',(-40.,0.,-50.));
#338=CARTESIAN_POINT('',(-40.,0.,-50.));
#339=CARTESIAN_POINT('',(-40.,0.,-50.));
#340=CARTESIAN_POINT('Origin',(-40.,0.,0.));
#341=CARTESIAN_POINT('',(-40.,0.,0.));
#342=CARTESIAN_POINT('',(-40.,4.,0.));
#343=CARTESIAN_POINT('Origin',(-90.,0.,-50.));
#344=CARTESIAN_POINT('',(-90.,4.,-90.));
#345=CARTESIAN_POINT('',(-90.,4.,-50.));
#346=CARTESIAN_POINT('',(-90.,0.,-90.));
#347=CARTESIAN_POINT('',(-90.,0.,-90.));
#348=CARTESIAN_POINT('',(-90.,0.,-50.));
#349=CARTESIAN_POINT('Origin',(-90.,0.,-90.));
#350=CARTESIAN_POINT('',(-90.,0.,-90.));
#351=CARTESIAN_POINT('',(-90.,4.,-90.));
#352=CARTESIAN_POINT('Origin',(-38.0555555555556,0.,-51.9444444444444));
#353=CARTESIAN_POINT('',(-27.,0.,-20.));
#354=CARTESIAN_POINT('Origin',(-20.,0.,-20.));
#355=CARTESIAN_POINT('',(-27.,0.,-70.));
#356=CARTESIAN_POINT('Origin',(-20.,0.,-70.));
#357=CARTESIAN_POINT('',(-77.,0.,-70.));
#358=CARTESIAN_POINT('Origin',(-70.,0.,-70.));
#359=CARTESIAN_POINT('Origin',(-70.,0.,-70.));
#360=CARTESIAN_POINT('',(-77.,4.,-70.));
#361=CARTESIAN_POINT('',(-77.,0.,-70.));
#362=CARTESIAN_POINT('Origin',(-70.,4.,-70.));
#363=CARTESIAN_POINT('Origin',(-20.,0.,-70.));
#364=CARTESIAN_POINT('',(-27.,4.,-70.));
#365=CARTESIAN_POINT('',(-27.,0.,-70.));
#366=CARTESIAN_POINT('Origin',(-20.,4.,-70.));
#367=CARTESIAN_POINT('Origin',(-20.,0.,-20.));
#368=CARTESIAN_POINT('',(-27.,4.,-20.));
#369=CARTESIAN_POINT('',(-27.,0.,-20.));
#370=CARTESIAN_POINT('Origin',(-20.,4.,-20.));
#371=CARTESIAN_POINT('Origin',(-38.0555555555556,4.,-51.9444444444445));
#372=UNCERTAINTY_MEASURE_WITH_UNIT(LENGTH_MEASURE(0.01),#376,
'DISTANCE_ACCURACY_VALUE',
'Maximum model space distance between geometric entities at asserted c
onnectivities');
#373=UNCERTAINTY_MEASURE_WITH_UNIT(LENGTH_MEASURE(0.01),#376,
'DISTANCE_ACCURACY_VALUE',
'Maximum model space distance between geometric entities at asserted c
onnectivities');
#374=(
GEOMETRIC_REPRESENTATION_CONTEXT(3)
GLOBAL_UNCERTAINTY_ASSIGNED_CONTEXT((#372))
GLOBAL_UNIT_ASSIGNED_CONTEXT((#376,#378,#379))
REPRESENTATION_CONTEXT('','3D')
);
#375=(
GEOMETRIC_REPRESENTATION_CONTEXT(3)
GLOBAL_UNCERTAINTY_ASSIGNED_CONTEXT((#373))
GLOBAL_UNIT_ASSIGNED_CONTEXT((#376,#378,#379))
REPRESENTATION_CONTEXT('','3D')
);
#376=(
LENGTH_UNIT()
NAMED_UNIT(*)
SI_UNIT(.MILLI.,.METRE.)
);
#377=(
LENGTH_UNIT()
NAMED_UNIT(*)
SI_UNIT(.CENTI.,.METRE.)
);
#378=(
NAMED_UNIT(*)
PLANE_ANGLE_UNIT()
SI_UNIT($,.RADIAN.)
);
#379=(
NAMED_UNIT(*)
SI_UNIT($,.STERADIAN.)
SOLID_ANGLE_UNIT()
);
#380=SHAPE_DEFINITION_REPRESENTATION(#381,#382);
#381=PRODUCT_DEFINITION_SHAPE('',$,#384);
#382=SHAPE_REPRESENTATION('',(#240),#374);
#383=PRODUCT_DEFINITION_CONTEXT('part definition',#388,'design');
#384=PRODUCT_DEFINITION(
'\X2\0421043E043504340438043D043804420435043B044C043D0430044F\X0\ \X2\043F043B0430044104420438043D0430\X0\ 
L-\X2\043E0431044004300437043D0430044F\X0\ (3 \X2\043E0442043204350440044104420438044F\X0\)
, USL','USL',#385,#383);
#385=PRODUCT_DEFINITION_FORMATION('',$,#390);
#386=PRODUCT_RELATED_PRODUCT_CATEGORY('USL','USL',(#390));
#387=APPLICATION_PROTOCOL_DEFINITION('international standard',
'automotive_design',2009,#388);
#388=APPLICATION_CONTEXT(
'Core Data for Automotive Mechanical Design Process');
#389=PRODUCT_CONTEXT('part definition',#388,'mechanical');
#390=PRODUCT(
'\X2\0421043E043504340438043D043804420435043B044C043D0430044F\X0\ \X2\043F043B0430044104420438043D0430\X0\ 
L-\X2\043E0431044004300437043D0430044F\X0\ (3 \X2\043E0442043204350440044104420438044F\X0\)
, USL','USL',$,(#389));
#391=PRESENTATION_STYLE_ASSIGNMENT((#392));
#392=SURFACE_STYLE_USAGE(.BOTH.,#395);
#393=SURFACE_STYLE_RENDERING_WITH_PROPERTIES($,#399,(#394));
#394=SURFACE_STYLE_TRANSPARENT(0.);
#395=SURFACE_SIDE_STYLE('',(#396,#393));
#396=SURFACE_STYLE_FILL_AREA(#397);
#397=FILL_AREA_STYLE('',(#398));
#398=FILL_AREA_STYLE_COLOUR('',#399);
#399=COLOUR_RGB('',0.745098039215686,0.737254901960784,0.729411764705882);
ENDSEC;
END-ISO-10303-21;
